Hank Williams Iii - Country Heroes tab

Song: Country Heroes
Artist: Hank Williams III
Album: Straight to hell

e------------------------------------------------------------------------|
A------------------------------------------------------------------------|
D------------------------------------------------------------------------|
G---2----2-1--0----------2---0--0--2--0----------------------------------|
B---------------3-----3-----------------3--0-----------------------------|
E------------------------------------------------------------------------|


e--0------0-----------------------------------------5--8--5--------------|
A---1---1---------3/5---5--4--3------1--5--3--4/5------------------------|
D-----0--------------------------5---------------------------------------|
G------------------------------------------------------------------------|
B------------------------------------------------------------------------|
E------------------------------------------------------------------------|


Please rate!!

....... Aaron. C
Tap to rate this tab
 
# A B C D E F G H I J K L M N O P Q R S T U V W X Y Z