Hank Williams Iii - Country Heroes chords

Highlighted       Show chord diagrams
KEY:  if the tab has a B next to the fret number, it means to bend it. if it has 
a / next to it, it means slide. 


INTRO:
e:------------------------------------------------------------------------|
A:------------------------------------------------------------------------|
G:---2B---2-1--0----------2---0-----2--0----------------------------------|
B:---------------3-----3-----------------3--0-----------------------------|
E:------------------------------------------------------------------------|


e:--0------0--------------------------------------------------5--8--5---5-|
A:---1---1---------3/5---5--4--3------1--5--3--4/5--3-----------------8---|
D:-----0--------------------------5--------------------5--2---------------|
G:------------------------------------------------------------------------|
B:------------------------------------------------------------------------|
E:------------------------------------------------------------------------|





               AM                      C
Well, oh what a feelin' that burns down low.
                 D                            AM     
When ya ain't got no where to turn or no where to go.
                                         C
It makes me feel like sometimes i'm outta control.
                D                         AM
So I'm gonna get wasted with all my country heroes.


CHORUS:
                 AM                               C
I'm drinkin' some George Jones and a little bit of Coe.
                   D                                   AM
Haggard's easin' my misery and Waylon's keepin' me from home.
                     AM                                 C
Hank's givin' me those high times. Cash is gonna sing it low.
                    D                                AM
An' i'm here gettin' wasted here just like my country heroes.



(solo break) - play thru one verse


                 AM                  C
I'm drinkin' that whiskey out of that glass.
                 D                            AM
And if that ain't country, boy, you can kiss my ass.
                 AM                        C
I wanna hear them old songs, nothin' of the new.
                        D                      AM
'Cause this might be the last time I'm gonna see you.



CHORUS:              

                 AM                               C
I'm drinkin' some George Jones and a little bit of Coe.
                   D                                   AM
Haggard's easin' my misery and Waylon's keepin' me from home.
                     AM                                 C
Hank's givin' me those high times. Cash is gonna sing it low.
                    D                                AM
An' i'm here gettin' wasted here just like my country heroes.


                D                           AM
I'm here gettin' wasted, with all my country heroes.  

(slowly strum AM up to end the song.)


Tap to rate this tab
 
# A B C D E F G H I J K L M N O P Q R S T U V W X Y Z