Song name
# A B C D E F G H I J K L M N O P Q R S T U V W X Y Z

Hank Williams Jr - Country Boy Can Surive tab

Hey, this is the introduction to Hank's song that is correct.  

 Drop the E string to D tuning.

     D       Am7       G              D
|--2-2-2-------------5-5-5--slide--2-2-2-2--|  
|--3-3-3---1-1-1-1---6-6-6--slide--3-3-3-3--|
|--2-2-2---2-2-2-2---5-5-5--slide--2-2-2-2--|
|-------------------------------------------|
|-------------------------------------------|
|-------------------------------------------|


|----------------------|
|----------------------|
|----------------------|
|--3p2p0---------------|
|--------3p2p0---------|
|--------------2h4--0--| (dropped to D)

   Thanks for checkin' my stuff.
           - Honch
Tap to rate this tab
# A B C D E F G H I J K L M N O P Q R S T U V W X Y Z