Guitaretab - guitar tabs
Song name
# A B C D E F G H I J K L M N O P Q R S T U V W X Y Z

Hank Williams - Amazing Grace tab

you will need to play this 3 or 4 times im not sure but your figuer it out..

e|-----------------------------------------------------------------------------|
B|-----------0--------0--------------------------------------------------------|
G|------0--------0-------2--0--------------------------------------------------|
D|--0--------------------------2--0--------------------------------------------|
A|-----------------------------------------------------------------------------|
E|-----------------------------------------------------------------------------|
[ Tab from: http://www.guitaretab.com/h/hank-williams/169724.html ]
e|------------------------------------------------------------------------------|
B|---------0-----0-----3----0--3---0-3-0----------------------------------------|
G|-----0-----0------2--------------------0-------0-0-0--------------------------|
D|--0--------------------------------------0--2---------2--0--------------------|
A|------------------------------------------------------------------------------|
E|------------------------------------------------------------------------------|

e|---------------------------------------------------------------------------|
B|------------0-------0------------------------------------------------------|
G|-------0-------0--------2\------0------------------------------------------|
D|--0------------------------------------------------------------------------|
A|---------------------------------------------------------------------------|
E|---------------------------------------------------------------------------|



 /  slide up
| \  slide down
| h  hammer-on
| p  pull-off
| ~  vibrato
| +  harmonic
| x  Mute note
Related for Amazing Grace tab
Advertisement will be closed in 10 seconds