Hank Williams - Whiskey On Ice tab

                            Hank Williams Jr. "Whiskey On Ice" 
                



 Intro:
 e|-----2^v^v------3^v^v------3^v^v-------------------|
 B|-----3----------3----------3-----------------------|
 G|-----2----------0----------0-----------------------|
 D|--0--0----------2----------0-----------------------| Repeat X2
 A|-----0-------3--3-------2--2-------0-2-0-----------|
 E|-----0---------------------------------------------|

 e|-----2^v^v------3^v^v----3-------|
 B|-----3----------3--------3-------|
 G|-----2----------0--------0-------|
 D|--0--0----------2--------0-------| 
 A|-----0-------3--3--------2-------|
 E|-----0-------------------3-------|

 Verse:

 D                    C
 Woke up this morning tastin Jim Beam
 G                     D
 Holdin' the answer to some ol' boy's dream
       D                    C
 Got a bad reputation guess I made life wild
         G                              D
 Like my whiskey on ice and my women on fire
 
 
      D                      C
 From Memphis to Mobile I've played all the die
 G                            D
 Lord knows I'm lucky just to still be alive
        D                    C
 I'm an all around rebel and I won't be denied
       G                              D
 Of my whiskey on ice and my women on fire
 
 Chorus:
           C                 D
 I like My Whiskey on ice my women on fire
          C                                D                 
 I like a good soundin' guitar and I won't be called a liar
       C                       D                           
 Spent many long nights with a burning desire
        C                     G        D      
 For my whiskey on ice and my women on fire
 
 e|-----2^v^v------3^v^v------3^v^v-------------------|
 B|-----3----------3----------3-----------------------|
 G|-----2----------0----------0-----------------------|
 D|--0--0----------2----------0-----------------------| 
 A|-----0-------3--3-------2--2-------0-2-0-----------|
 E|-----0---------------------------------------------|

 e|-----2^v^v------3^v^v----3-------|
 B|-----3----------3--------3-------|
 G|-----2----------0--------0-------|
 D|--0--0----------2--------0-------| 
 A|-----0-------3--3--------2-------|
 E|-----0-------------------3-------|

      D                         C
 Some folks talk about me guess they always will
            G                          D
 They think it's been an easy ride and all been down hill
               D                          C                                
 But what they dont think about what they don't realize
        G                            D
 Is the shoes that I'm fillin' are a mighty big size
 


 D                            C
 One night in Nashville tried to take my life
        G                           D
 Cuz my friends had all left me and so had my wife
       D                         C
 But a fast ride to Florida made me realize
            C                       G                D
 I had some whiskey on ice and some Florida women on fire
 
 Chorus: 

           C                 D
 I like My Whiskey on ice my women on fire
          C                                D                 
 I like a good soundin' guitar and I won't be called a liar
       C                       D                           
 Spent many long nights with a burning desire
        C                     G        D      
 For my whiskey on ice and my women on fire

           C                 D
 I like my whiskey on ice my women on fire
        C                         D
 Like a good feelin' guitar and I won't be called a liar
 C                       D
 I may grow old but I'll never grow tired
       C                     G               D
 of my whiskey on ice and my women, women on fire

 Outro:
 e|-----2^v^v------3^v^v------3^v^v-------------------|
 B|-----3----------3----------3-----------------------|
 G|-----2----------0----------0-----------------------|
 D|--0--0----------2----------0-----------------------| Repeat X2
 A|-----0-------3--3-------2--2-------0-2-0-----------|
 E|-----0---------------------------------------------|

 e|-----2^v^v------3^v^v------3^v^v--------------------|
 B|-----3----------3----------3------------------------|
 G|-----2----------0----------0-------------------0----|
 D|--0--0----------2----------0------------------------| 
 A|-----0-------3--3-------2--2-------0-2-0------------|
 E|-----0----------------------------------------------|

Tap to rate this tab
 
# A B C D E F G H I J K L M N O P Q R S T U V W X Y Z