Song name
# A B C D E F G H I J K L M N O P Q R S T U V W X Y Z

Hannah Georgas - The Beat Stuff tab

-------------------------------------------------------------------------------
                         THE BEAT STUFF - Hannah Georgas
-------------------------------------------------------------------------------
Tabbed by: Pat Malavi
pat.malavi@gmail.com

Dsus2 xx0230
Dsus  xx0233
D     xx0232
D/B   x2x032
G     320033
A     x02220
Cadd9 x32030
E     022100

--Intro--
      Dsus2      Dsus       D       D   Dsus2    Dsus       D       D
e|----------0-------3-------2-------2-------0-------3-------2-------2--------|
B|------3-------3-------3-------3-------3-------3-------3-------3------------|
G|---------------------------------------------------------------------------|
D|----0---0---0---0---0---0---0---0---0---0---0---0---0---0---0---0----------|
A|---------------------------------------------------------------------------|
E|---------------------------------------------------------------------------|

--Verse--
      D                               D/B
e|----------2-------2-------2-------2-------2-------2-------2-------2--------|
B|------3-------3-------3-------3-------3-------3-------3-------3------------|
G|---------------------------------------------------------------------------|
D|----0---0---0---0---0---0---0---0------------------------------------------|
A|------------------------------------2---2---2---2---2---2---2---2----------|
E|---------------------------------------------------------------------------|

      G                               A
e|----------3-------3-------3-------3------0--------0-------0-------0--------|
B|------3-------3-------3-------3-------2-------2-------2-------2------------|
G|---------------------------------------------------------------------------|
D|---------------------------------------------------------------------------|
A|------------------------------------0---0---0---0---0---0---0---0----------|
E|----3---3---3---3---3---3---3---3------------------------------------------|

D                                  D/B
It's like you said this is way too tough
                                     G
We've gone away to make it out there all alone
          A
Out there on our own


D                                  D/B
When times get tough you've got my back
                                          G
Don't know what I'd do without you I'd be all alone
          A
Out there on my own


--Chorus--
    D       A       G       
e|--2-------0-------3-------3------------------------------------------------|
B|------3-------2-------3-------3--------------------------------------------|
G|---------------------------------------------------------------------------|
D|--------0------------------------------------------------------------------|
A|----------------0----------------------------------------------------------|
E|------------------------3-------3------------------------------------------|

    D       A       Cadd9
e|--2-------0-------0-------0------------------------------------------------|
B|------3-------2-------3-------3--------------------------------------------|
G|---------------------------------------------------------------------------|
D|--------0------------------------------------------------------------------|
A|----------------0--------3------3------------------------------------------|
E|---------------------------------------------------------------------------|

    D       A       E   
e|--2-------0-------0-------0------------------------------------------------|
B|------3-------2-------0-------0--------------------------------------------|
G|---------------------------------------------------------------------------|
D|--------0------------------------------------------------------------------|
A|----------------0----------------------------------------------------------|
E|------------------------0-------0------------------------------------------|

D        A      G
  I ain't got no fancy ride
D              A           Cadd9
  Ain't got no money to go out tonight
D     A           E 
All I got is this feeling inside


--Verse 2--

D                                   D/B
When I wake up you're already in my head
                                           G
As the day rolls on I'm thinkin' about you song by song
          A
Oh please sing along


D                                       D/B
You are the tune that keeps me right on key
                                          G
Don't know what I'd do without you I'd be all alone
          A
Out there on my own


--Chorus--

D        A      G
  I ain't got no fancy ride
D              A           Cadd9
  Ain't got no money to go out tonight
D     A           E 
All I got is this feeling inside


D        A           G
All I've got is this beat beat inside
D         A       Cadd9
And all I know is what I want
D     A       Cadd9
All I know is what I want is you


--Repeat Intro tab--

Give me that beat beat beat stuff
Give me that be-beat beat stuff
Give me that be-beat beat stuff
Give me that be-beat beat stuff
Give me that be-beat beat stuff                   
Give me that beat beat stuff

Short riff at end of each line above
e|--2-----0-------2----------------------------------------------------------|
B|----3-----3---3------------------------------------------------------------|
G|---------------------------------------------------------------------------|
D|------0-----0--------------------------------------------------------------|
A|---------------------------------------------------------------------------|
E|---------------------------------------------------------------------------|

--Chorus--

D        A      G
  I ain't got no fancy ride
D              A           Cadd9
  Ain't got no money to go out tonight
D     A           E 
All I got is this feeling inside


D        A           E
All I've got is this beat beat inside
D         A       Cadd9
And all I know is what I want
D         A       Cadd9
And all I know is what I want
D     A       Cadd9
All I know is what I want is you


--Repeat Intro tab--

It's you
It's you
It's you

--End on D--
Tap to rate this tab
# A B C D E F G H I J K L M N O P Q R S T U V W X Y Z