Guitaretab - guitar tabs
Song name
# A B C D E F G H I J K L M N O P Q R S T U V W X Y Z

Hannah Montana - Nobodys Perfect tab

Hannah Montana - Nobodys Perfect
---------------------------------

Ok here is the whole song in correct tone pitch. For the intro I tabbed the
slower notes from the violin-like instrument which are much easier to play
than the fast short notes. The buildup and timecodes refer to the live
version (bobw concert tour). This song rockz - have phun!



### INTRO ### 00:00 ###
e|----------|-----------|----------|-------------|
B|----------|-----------|----------|-------------|
G|----------|-----------|----------|-------------|
D|----------|-6~---8~---|----------|-------------|
A|----------|-----------|-6~-------|-------------|
E|-8~-------|-----------|----------|-6~----------|

e|----------|-----------|----------|-------------|
B|----------|-----------|----------|-------------|
G|----------|-----------|----------|-------------|
D|----------|-6~---5~---|----------|-8--8--8--8--|
A|----------|-----------|-6~-------|-8--8--8--8--|
E|-8~-------|-----------|----------|-6--6--6--6--|

e|-----------------------------------|---------------|
B|-----------------------------------|---------------|
G|-----------------------------------|---------------|
D|-----------------------------------|-8-8-8-8-8-----|
A|-10---10---10---10-----(and-so-on)-|-8-8-8-8-8-----|
E|--8-88-8-88-8-88-8-88--------------|-6-6-6-6-6-----|


### VERSE ### 00:28 ###
e|-------------|----------------|------------|------------|
B|-------------|----------------|------------|------------|
G|-------------|----------------|------------|------------|
D|-8-----8-8\--|-11-----11-11\--|-4-----4-4--|-4-----6-6--|
A|-8-----8-8\--|-11-----11-11\--|-4-----4-4--|-4-----6-6--|
E|-6-----6-6\--|--9------9--9\--|-2-----2-2--|-2-----4-4--|

e|-------------|----------------|------------|------------|
B|-------------|----------------|------------|------------|
G|-------------|----------------|------------|------------|
D|-8-----8-8\--|-11-----11-11\--|-4-----4-4--|-4-----4-4--|
A|-8-----8-8\--|-11-----11-11\--|-4-----4-4--|-4-----4-4--|
E|-6-----6-6\--|--9------9--9\--|-2-----2-2--|-2-----2-2--|


### PRE-CHORUS ### 00:43 ###
e|----------|----------|----------|--------------|
B|----------|----------|----------|--------------|
G|----------|----------|----------|--------------|
D|-6--------|-8--------|-6--------|-8-8-8-8-8----|
A|-6--------|-8--------|-6--------|-8-8-8-8-8----|
E|-4--------|-6--------|-4--------|-6-6-6-6-6----|


### CHORUS ### 00:50 ###
e|-----------------|-----------------|-----------------|------------------|
B|-----------------|-----------------|-----------------|------------------|
G|-5-5-5-5-5-5-5-5-|-----------------|-8-8-8-8-8-8-8-8-|------------------|
D|-5-5-5-5-5-5-5-5-|-6-6-6-6-6-6-6-6-|-8-8-8-8-8-8-8-8-|-8-8-8-8-8-8-8-8--| (2x)
A|-3-3-3-3-3-3-3-3-|-6-6-6-6-6-6-6-6-|-6-6-6-6-6-6-6-6-|-8-8-8-8-8-8-8-8--|
E|-----------------|-4-4-4-4-4-4-4-4-|-----------------|-6-6-6-6-6-6-6-6--|
[ Tab from: http://www.guitaretab.com/h/hannah-montana/153523.html ]
e|----------|-------------|
B|----------|-------------|
G|----------|-------------|
D|-6--------|-6--6--6--6--|
A|-6--------|-6--6--6--6--|
E|-4--------|-4--4--4--4--|


### VERSE ### 01:08 ###

### PRE-CHORUS ### 01:23 ###


### CHORUS ### 01:30 ###
e|-----------------|-----------------|-----------------|------------------|
B|-----------------|-----------------|-----------------|------------------|
G|-5-5-5-5-5-5-5-5-|-----------------|-8-8-8-8-8-8-8-8-|------------------|
D|-5-5-5-5-5-5-5-5-|-6-6-6-6-6-6-6-6-|-8-8-8-8-8-8-8-8-|-8-8-8-8-8-8-8-8--| (3x)
A|-3-3-3-3-3-3-3-3-|-6-6-6-6-6-6-6-6-|-6-6-6-6-6-6-6-6-|-8-8-8-8-8-8-8-8--|
E|-----------------|-4-4-4-4-4-4-4-4-|-----------------|-6-6-6-6-6-6-6-6--|


### INTERLUDE ### 01:53 ###
|-----------------|-----------------|-----------------|------------------|
|-----------------|-----------------|-----------------|------------------|
|-----------------|-----------------|-----------------|------------------|
|-----------------|-----------------|-----------------|------------------|
|-6-6-6-6-6-6-6-6-|-6-6-6-6-6-6-6-6-|-8-8-8-8-8-8-8-8-|-8-8-8-8-8-8-8-8--|
|-4-4-4-4-4-4-4-4-|-3-3-3-3-3-3-3-3-|-6-6-6-6-6-6-6-6-|-6-6-6-6-6-6-6-6--|

|-----------------|-----------------|----------------------------|
|-----------------|-----------------|----------------------------|
|-----------------|-----------------|----------------------------|
|-----------------|-----------------|-5-5--5-5--5-5--5-5--5-5-5--|
|-6-6-6-6-6-6-6-6-|-6-6-6-6-6-6-6-6-|-5-5--5-5--5-5--5-5--5-5-5--|
|-4-4-4-4-4-4-4-4-|-3-3-3-3-3-3-3-3-|-3-3--3-3--3-3--3-3--3-3-3--|


### INTRO ### 02:07 ###


### CHORUS ### 02:35 ###
e|-----------------|-----------------|-----------------|------------------|
B|-----------------|-----------------|-----------------|------------------|
G|-----------------|-----------------|---8-8-8-8-8-8-8-|------------------|
D|-10---------10\--|-6------------6--|---8-8-8-8-8-8-8-|-8-8-8-8-8-8-8-8--|
A|-10---------10\--|-6------------6--|---6-6-6-6-6-6-6-|-8-8-8-8-8-8-8-8--|
E|--8----------8\--|-4------------4--|-----------------|-6-6-6-6-6-6-6-6--|

e|-----------------|-----------------|-----------------|------------------|
B|-----------------|-----------------|-----------------|------------------|
G|-5-5-5-5-5-5-5-5-|-----------------|-8-8-8-8-8-8-8-8-|------------------|
D|-5-5-5-5-5-5-5-5-|-6-6-6-6-6-6-6-6-|-8-8-8-8-8-8-8-8-|-8-8-8-8-8-8-8-8--| (3x)
A|-3-3-3-3-3-3-3-3-|-6-6-6-6-6-6-6-6-|-6-6-6-6-6-6-6-6-|-8-8-8-8-8-8-8-8--|
E|-----------------|-4-4-4-4-4-4-4-4-|-----------------|-6-6-6-6-6-6-6-6--|


### OUTRO ### 03:05 ###
|-----------------|-----------------|-----------------|----------------|---------|
|-----------------|-----------------|-----------------|----------------|---------|
|-----------------|-----------------|-----------------|----------------|---------|
|-----------------|-----------------|-----------------|----------------|---------|
|-6-6-6-6-6-6-6-6-|-6-6-6-6-6-6-6-6-|-3-3-3-3-3-3-3-3-|-3-3-3--8-8-8-8-|-10------|
|-4-4-4-4-4-4-4-4-|-3-3-3-3-3-3-3-3-|-1-1-1-1-1-1-1-1-|-1-1-1--6-6-6-6-|--8------|
Related for Nobodys Perfect tab
Nobodys Perfect chords by Hannah Montana