Song name
# A B C D E F G H I J K L M N O P Q R S T U V W X Y Z

Hannah Montana - Pumpin Up The Party tab

-------------------------------------------------------------------------------
			     Pumpin' up the party - Hannah Montana
-------------------------------------------------------------------------------
Tabbed by: stratoKeith
Email: kalle.bulle@hotmail.com

Tuning: Standard


Intro/Ref:

E       D      A           C             D
Hey Get up Get loud start pumping up the party now    x2


(e|-----------------------------|
 B|---------3-------------------|
 G|---------2----2----5----7----|
 D|----2----0----2----5----7----|
 A|----2---------0----3----5----|  x2
 E|----0------------------------|)



pre-verse lick:

e|----------------------------------------------------------|
B|----------------------------------------------------------|
G|----------------------------------------------------------|
D|--------------------------5-------------------------------|
A|----5-4-5--4-5-4-5--4-5-4------5-4-5--4-5-4-5--4-5-4------|
E|-----------------------------------------------------3----|

Verse:

e|-----------3-3-3-3-3-5----------(5-3-5-3)----|
B|---------3-3-3-3-3-3-5-----------------------|
G|---------2-------------2----5----7-----------|
D|----2----0-------------2----5----7-----------|
A|----2------------------0----3----5-----------|  x2
E|----0----------------------------------------|

Pre-chorus/bridge:

e|----------------3-3-3-3-3-5----3-3-3-3-3-5--------------|
B|----------------5-5-5-5-5-5----5-5-5-5-5-5--------------|
G|----5----7------------------------------------5----7----|
D|----5----7----2--------------2----------------5----7----|
A|----3----5----2--------------2----------------3----5----|
E|--------------0--------------0--------------------------|
                                           (keep strumming the last D chord)




===============================================================================
Tap to rate this tab
# A B C D E F G H I J K L M N O P Q R S T U V W X Y Z