Song name
# A B C D E F G H I J K L M N O P Q R S T U V W X Y Z

Hannah Montana - The Climb tab

VERSE 1:
E----------------------------------------|
B----------------------------------------|
G--9---9---6---2-------------------------|
D--9---9---6---2-------------------------|
A--7---6---4---0-------------------------|
E----------------------------------------|  X2

PRE-CHORUS
E------------------------------------------------------|
B------------------------------------------------------|
G------6------------4-------2-----------------------4--|
D------6------------4-------2-----------------------4--|
A------4------------2-------------------------------2--|
E------------------------------------------------------|  X1
 
CHORUS:
E------------------------------------------------|
B------------------------------------------------|
G--9-----9-----6-----2---------------------------|
D--9-----9-----6-----2---------------------------|
A--7-----6-----4-----0---------------------------|
E------------------------------------------------|  X1

E------------------------------------------------|
B------------------------------------------------|
G--9-----9-----2-----4--------------9------------|
D--9-----9-----2-----4--------------9------------|
A--7-----6-----0-----2--------------7------------|
E------------------------------------------------|  X1

REPEAT VERSE PRE-CHROUS AND CHORUS

FOR THE SOLO BIT PLAY THIS;

E------------------------------------------------------|
B------------------------------------------------------|
G---9---------9---------6---------2--------------------|
D---9---------9---------6---------2--------------------|
A---7---------6---------4---------0--------------------|
E------------------------------------------------------|

REPEAT CHORUS

OUTRO
Play this to end
E------------------------------------------------------|
B------------------------------------------------------|
G---9---------9---------6---------2--------------------|
D---9---------9---------6---------2--------------------|
A---7---------6---------4---------0--------------------|
E------------------------------------------------------|

finish on this chord
E------------------------------------------------------|
B------------------------------------------------------|
G---9~~~-----------------------------------------------|
D---9~~~-----------------------------------------------|
A---7~~~-----------------------------------------------|
E------------------------------------------------------|
Tap to rate this tab
 
# A B C D E F G H I J K L M N O P Q R S T U V W X Y Z