Song name
# A B C D E F G H I J K L M N O P Q R S T U V W X Y Z

Hannah Montana - Old Blue Jeans tab

-------------------------------------------------------------------------------
			     old blue jeans-Hanna Montana
-------------------------------------------------------------------------------
Tabbed by:
Email:

Tuning:
   YOu walk away from me tonight, Not knowing the real me
e|---------------------------------------------------------------------------|
B|--3--3----3-3---3---3-----------3---3---3----3---3----2--------------------|
G|------------------------2-2------------------------------------------------|
D|---------------------------------------------------------------------------|
A|---------------------------------------------------------------------------|
E|---------------------------------------------------------------------------|

  'Cause you believe in all the hype, I just stepped out of a magazine			
e|---------------------------------------------------------------------------|
B|--3-----3--3--3-----3---3-----------3--3----3------3---3--3-3-3-2----------|
G|---------------------------2---2-------------------------------------------|
D|---------------------------------------------------------------------------|
A|---------------------------------------------------------------------------|
E|---------------------------------------------------------------------------|
  
   Take away the glamour, the world, let it show and forget everything
e|---------------------------------------------------------------------------|
B|-3----35---3---5--3-----3---5------3---3---5---3---3--5---3--3-5-----------|
G|---------------------------------------------------------------------------|
D|---------------------------------------------------------------------------|
A|---------------------------------------------------------------------------|
E|---------------------------------------------------------------------------|
   
   you know, Take away the mirrors, the limos, the lights,
e|---------------------------------------------------------------------------|
B|-3---5-----3----35---3---5---3-----3--5--3----3---5------------------------|
G|---------------------------------------------------------------------------|
D|---------------------------------------------------------------------------|
A|---------------------------------------------------------------------------|
E|---------------------------------------------------------------------------|
   
   Cause I don't want to dress up tonight
e|---------------------------------------------------------------------------|
B|-5-----7-7-----7----7--7-----9--7-5----------------------------------------|
G|---------------------------------------------------------------------------|
D|---------------------------------------------------------------------------|
A|---------------------------------------------------------------------------|
E|---------------------------------------------------------------------------|
                          
 				
				
				CHORUS
   I'm gonna put on my old blue jeans, I'm gonna walk outta here in to

e|---------------------------------------------------------------------------|
B|-5---5--5--9---9--9---9--7----5------5---5--5---9---9--9--9----7---7-------|
G|---------------------------------------------------------------------------|
D|---------------------------------------------------------------------------|
A|---------------------------------------------------------------------------|
E|---------------------------------------------------------------------------|

  the street, Would you put up resistance? Would it make a difference
e|---------------------------------------------------------------------------|
B|5---5--------5----5---9---9--9-9---7------7-----5--5---5-5---9-------------|
G|---------------------------------------------------------------------------|
D|---------------------------------------------------------------------------|
A|---------------------------------------------------------------------------|
E|---------------------------------------------------------------------------|
  
   Would you know the real Me? Me and my old blue jeans.  (END CHORUS)
e|---------------------------------------------------------------------------|
B|-3------3---3----3---3---5---5---7--7---7---5----5-------------------------|
G|---------------------------------------------------------------------------|
D|---------------------------------------------------------------------------|
A|---------------------------------------------------------------------------|
E|---------------------------------------------------------------------------|
-------------------------------------------------------------------------------

   
  YOu think I'm  unapproachable, Bet I don't feel enough
e|---------------------------------------------------------------------------|
B|-3---3----3----3-33----3--------3--3--3----3----3-2------------------------|
G|------------------------2-2------------------------------------------------|
D|---------------------------------------------------------------------------|
A|---------------------------------------------------------------------------|
E|---------------------------------------------------------------------------|
  
  She'll read a book cover to cover and not be so quick to judge
e|---------------------------------------------------------------------------|
B|-3-----3----3-3----3--------------3---3---3---3--3----3--2-----------------|
G|---------------------2---2--4-2--------------------------------------------|
D|---------------------------------------------------------------------------|
A|---------------------------------------------------------------------------|
E|---------------------------------------------------------------------------|
 
   Take away the glamour, the makeup, the clothes, and forget everything
e|---------------------------------------------------------------------------|
B|-3----35---3---5--3-----3---5---3----3--5---------3--3---5--3--3--5--------|
G|---------------------------------------------------------------------------|
D|---------------------------------------------------------------------------|
A|---------------------------------------------------------------------------|
E|---------------------------------------------------------------------------|

   you know, Take away the ego, the trick of the lights
e|---------------------------------------------------------------------------|
B|-3----5-----3---35----3--53----3---5----3--3----5--------------------------|
G|---------------------------------------------------------------------------|
D|---------------------------------------------------------------------------|
A|---------------------------------------------------------------------------|
E|---------------------------------------------------------------------------|
  'Cause I don't wanna dress up tonight.
e|---------------------------------------------------------------------------|
B|-5-----7-7-----7--7---7----9--7-5------------------------------------------|
G|---------------------------------------------------------------------------|
D|---------------------------------------------------------------------------|
A|---------------------------------------------------------------------------|
E|---------------------------------------------------------------------------|
                REPEAT CHORUS UNTIL SONG ENDS
Tap to rate this tab
 
# A B C D E F G H I J K L M N O P Q R S T U V W X Y Z