Song name
# A B C D E F G H I J K L M N O P Q R S T U V W X Y Z

Hannah Montana - Supergirl tab

Hannah Montana - Supergirl
--------------------------

Video: http://www.youtube.com/watch?v=HWDpgm1uoYc

Tuning: Drop D



### INTRO ### 00:00 ###
e|----------------|
B|----------------|
G|----------------| 4x
D|--5-5-5--xxx----|
A|--5---5--xxx----|
D|--5---5--xxx----|


### VERSE ### 00:06 ###
e|-------------------------------------|
B|-------------------------------------|
G|-----------8-------------------------| 2x
D|--5--------8-(8x)--8-------3---------|
A|--5-(32x)--6-------8-(4x)--3-(4x)----|
D|--5----------------8-------3---------|


### PRE-CHORUS ### 00:28 ###
e|----------------------------------[N.H.]--|-----------------------------------[N.H.]---|
B|------------------------------------------|--------------------------------------------|
G|------------------------------------------|---------------------------------------5----|
D|--5-x-x--5-x-x--xxxx--5-x-x--5-x-----5----|--5-x-x--5-x-x--xxxx--5-x-x--5-x-----5-5----|
A|--5-x-x--5-x-x--xxxx--5-x-x--5-x---5------|--5-x-x--5-x-x--xxxx--5-x-x--5-x---5--------|
D|--5-x-x--5-x-x--xxxx--5-x-x--5-x----------|--5-x-x--5-x-x--xxxx--5-x-x--5-x------------|


### CHORUS ### 00:36 ###
e|----------------------------------------|--------------------------------------|
B|----------------------------------------|--------------------------------------|
G|------------8888-8-8--------------------|-----------8888888--------------------|
D|--555--555--8888-8-8--88-88-8888-88-77--|--5555555--8888888--88-88-8888-88-77--|
A|--555--555--6666-6-6--88-88-8888-88-77--|--5555555--6666666--88-88-8888-88-77--|
D|--555--555------------88-88-8888-88-77--|--5555555-----------88-88-8888-88-77--|

e|---------------------------------------|--------------------------------------|
B|---------------------------------------|--------------------------------------|
G|-----------------------------8-888888--|------------------------------88--77--|
D|--5-55555--7-77777--8-88888--8-888888--|--5555555--7777777--888888-8--88--77--|
A|--5-55555--7-77777--8-88888--6-666666--|--5555555--7777777--888888-8--66--55--|
D|--5-55555--7-77777--8-88888------------|--5555555--7777777--888888-8----------|



### INTRO ### 01:04 ###



### VERSE ### 01:11 ###
e|--------------------------------------------------|-----------------------------------|
B|--------------------------------------------------|-----------------------------------|
G|--------[stops!]----------8-----------------------|-----------8-----------------------|
D|--5--------------5--------8-(8x)--8-------3-------|--5--------8-(8x)--8-------3-------|
A|--5-(12x)--------5-(16x)--6-------8-(4x)--3-(4x)--|--5-(32x)--6-------8-(4x)--3-(4x)--|
D|--5--------------5----------------8-------3-------|--5----------------8-------3-------|



### PRE-CHORUS ### 01:32 ###

### CHORUS ### 01:41 ###



### INTERLUDE (VOCALS) ### 02:09 ###
e|------------------------------------------------|
B|--10--------11-10--------11---------------------|
G|-------12-----------12-------10--8-7--8-10---9--|
D|------------------------------------------------|
A|------------------------------------------------|
D|------------------------------------------------|

e|------------------------------------------------------|
B|--10--------11-10-------------------------------------|
G|-------12-----------12---12---10--10-10------11---14--|
D|----------------------------------------12------------|
A|------------------------------------------------------|
D|------------------------------------------------------|



### CHORUS ### 02:25 ###


Tap to rate this tab
 
# A B C D E F G H I J K L M N O P Q R S T U V W X Y Z