Song name
# A B C D E F G H I J K L M N O P Q R S T U V W X Y Z

Hannah Montana - Ordinary Girl tab

-------------------------------------------------------------------------------
			     Ordinary Girl - Hannah Montana
-------------------------------------------------------------------------------


Tabbed By: Teddynezz
Email: Teddynezz@aol.com

Tuning: Standard (EADGBe)

************************************
|||||||||||||||Key||||||||||||||||||
************************************

| /   Slide Up
| \   Slide Down
| #   Sweep (Whole Note)
| %   Sweep (Half Note)
| ^   Sweep (Quarter Note)
| &   Sweep (8th Note)
| !   Sweep (16th Note)
| $   Sweep (32nd Note)
| h   Hammer On
| p   Pull Off
| ~   Vibrato
| +   Harmonic
| *   Pinch Harmonic
| x   Mute Note
| b   Bend
| pb  Pre-Bend
| br  Bend Release
| pbr Pre-Bend Release
| brb Bend Release Bend
| >   Tremelo Raise
| <   Tremelo Dive
| "   Palm Mute
| ()  Ghost Note
| =   Sustain

************************************
||||||||||||||||||||||||||||||||||||
************************************


***NOTE***
This is as close as I could get, I will attempt to tab it out in Guitar Pro for the 
Pro Users.
I will also export as a Power Tab for those who use that.
Check for those over the next couple of days.

Anyways this has a moderate tempo, in standard tuning and has a fairly simple pattern.


Hope the tab helps those who need it, and is my first tab in a while.
Hope you guys all like it, and if something is wrong, please notify me and I will 
it.


Intro
 :-----------------------|x2
e|-3---------3--0-x-x----|
B|-3--3-x-x--3--1-x-x----|
G|-0--2-x-x--0--0-x-x----|
D|-0--0-x-x--0--2-x-x----|
A|-2--0-x-x--2--3-x-x----|
E|-3---------3-----------|
        _ _       _ _
   G  D      G  C

Verse
  :------------------------------------------------------------|x3 Then
e|-----------------------------3-3^-x-x---------|--3-3--x-x----|
B|-----3--3-3^-x-x----------3--3-3^-x-x---------|--3-3--x-x----|
G|--------2-2^-x-x-------------5-5^-x-x---------|--5-5--x-x----|
D|---0----0-0^-x-x-------0-----5-5^-x-x---------|--5-5--x-x----|
A|--------0-0^-x-x-------------3-3^-x-x---------|--3-3--x-x----|
E|-3------------------3-------------------------|--------------|
               _ _                  _ _                 _ _
   G      D D         G        C C                 C C


Chorus
e|-----------------------------3-3^-x-x---------|--3-3--x-x--|
B|-----3--1-1^-x-x----------3--2-2^-x-x---------|--3-3--x-x--|
G|--------0-0^-x-x-------------0-0^-x-x---------|--5-5--x-x--|
D|---0----2-2^-x-x-------0-----0-0^-x-x---------|--5-5--x-x--|
A|--------3-3^-x-x------------------------------|--3-3--x-x--|
E|-3------------------3-------------------------|------------|
               _ _                  _ _                 _ _
   G      C C         G        D D                 C C


Verse
  :------------------------------------------------------------|x3 Then
e|-----------------------------3-3^-x-x---------|--3-3--x-x----|
B|-----3--3-3^-x-x----------3--3-3^-x-x---------|--3-3--x-x----|
G|--------2-2^-x-x-------------5-5^-x-x---------|--5-5--x-x----|
D|---0----0-0^-x-x-------0-----5-5^-x-x---------|--5-5--x-x----|
A|--------0-0^-x-x-------------3-3^-x-x---------|--3-3--x-x----|
E|-3------------------3-------------------------|--------------|
               _ _                  _ _                 _ _
   G      D D         G        C C                 C C


Chorus
e|-----------------------------3-3^-x-x---------|--3-3--x-x--|
B|-----3--1-1^-x-x----------3--2-2^-x-x---------|--3-3--x-x--|
G|--------0-0^-x-x-------------0-0^-x-x---------|--5-5--x-x--|
D|---0----2-2^-x-x-------0-----0-0^-x-x---------|--5-5--x-x--|
A|--------3-3^-x-x------------------------------|--3-3--x-x--|
E|-3------------------3-------------------------|------------|
               _ _                  _ _                 _ _
   G      C C         G        D D                 C C


Bridge
e|-----------------------------3-3^-x-x---------|--3-3--x-x--|
B|-----3--1-1^-x-x----------3--2-2^-x-x---------|--3-3--x-x--|
G|--------0-0^-x-x-------------0-0^-x-x---------|--5-5--x-x--|
D|---0----2-2^-x-x-------0-----0-0^-x-x---------|--5-5--x-x--|
A|--------3-3^-x-x------------------------------|--3-3--x-x--|
E|-3------------------3-------------------------|------------|
               _ _                  _ _                 _ _
   G      C C         G        D D                 C C


Chorus
e|-----------------------------3-3^-x-x---------|--3-3--x-x--|
B|-----3--1-1^-x-x----------3--2-2^-x-x---------|--3-3--x-x--|
G|--------0-0^-x-x-------------0-0^-x-x---------|--5-5--x-x--|
D|---0----2-2^-x-x-------0-----0-0^-x-x---------|--5-5--x-x--|
A|--------3-3^-x-x------------------------------|--3-3--x-x--|
E|-3------------------3-------------------------|------------|
               _ _                  _ _                 _ _
   G      C C         G        D D                 C C


Outro
e|-3---------3--0-x-x--|--0-0--x-x--|
B|-3--3-x-x--3--1-x-x--|--1-1--x-x--|
G|-0--2-x-x--0--0-x-x--|--0-0--x-x--|
D|-0--0-x-x--0--2-x-x--|--2-2--x-x--|
A|-2--0-x-x--2--3-x-x--|--3-3--x-x--|
E|-3---------3---------|------------|
        _ _       _ _          _ _
   G  D      G  C         C C
Tap to rate this tab
 
# A B C D E F G H I J K L M N O P Q R S T U V W X Y Z