Guitaretab - guitar tabs
Song name
# A B C D E F G H I J K L M N O P Q R S T U V W X Y Z

Hannah Montana - Who Said tab

Who Said
Hannah Montana
Hannah Montana Soundtrack
(2006)

Intro:
e|----------------------|
B|----------------------|
G|--8/9-8/9-8/9-8/9-----|
D|--8/9-8/9-8/9-8/9-7~--| x2
A|--6/7-6/7-6/7-6/7-7~--|
E|------------------5~--|


Verse 1:
e|--------------|    |----------------------|
B|--------------|    |----------------------|
G|--------------|    |--8/9-8/9-8/9-8/9-----|
D|--9-----7-----| x3 |--8/9-8/9-8/9-8/9-7~--|
A|--9-x8--7-x8--|    |--6/7-6/7-6/7-6/7-7~--|
E|--7-----5-----|    |------------------5~--|
(^palm mute here^)

e|--------------|    |---------------|
B|--------------|    |---------------|
G|--------------|    |--8/9-8/9-8/9--|
D|--9-----7-----| x3 |--8/9-8/9-8/9--|
A|--9-x8--7-x8--|    |--6/7-6/7-6/7--|
E|--7-----5-----|    |---------------|
(^palm mute here^)

Pre-Chorus 1:
e|----------------------|-------------------------|
B|----------------------|-------------------------|
G|----------------------|-------------------------|
D|--11-----9-----7------|--11-----9-----4~~--7~~--|
A|--11-x8--9-x8--7-x16--|--11-x8--9-x8--4~~--7~~--|
E|---9-----7-----5------|---9-----7-----2~~--5~~--|
(^^^^^^^^^^^^palm mute here^^^^^^^^^^^)


CHORUS 1:
e|--------------------------|
B|--------------------------|
G|--------------6-----------|
D|--2-----7-----6-----4-----| x2
A|--2-x8--7-x8--4-x8--4x8--|
E|--0-----5-----------2-----|


Post-Chorus 1:
e|----------------------|
B|----------------------|
G|--8/9-8/9-8/9-8/9-----|
D|--8/9-8/9-8/9-8/9-7~--| x2
A|--6/7-6/7-6/7-6/7-7~--|
E|------------------5~--|

Verse 2:
e|--------------|    |----------------------|
B|--------------|    |----------------------|
G|--------------|    |--8/9-8/9-8/9-8/9-----|
D|--9-----7-----| x3 |--8/9-8/9-8/9-8/9-7~--|
A|--9-x8--7-x8--|    |--6/7-6/7-6/7-6/7-7~--|
E|--7-----5-----|    |------------------5~--|
(^palm mute here^)

[ Tab from: http://www.guitaretab.com/h/hannah-montana/76079.html ]
Pre-Chorus 2:
e|----------------------|-------------------------|
B|----------------------|-------------------------|
G|----------------------|-------------------------|
D|--11-----9-----7------|--11-----9-----4~~--7~~--|
A|--11-x8--9-x8--7-x16--|--11-x8--9-x8--4~~--7~~--|
E|---9-----7-----5------|---9-----7-----2~~--5~~--|
(^^^^^^^^^^^^palm mute here^^^^^^^^^^^)

CHORUS 2:
e|--------------------------|
B|--------------------------|
G|--------------6-----------|
D|--2-----7-----6-----4-----| x2
A|--2-x8--7-x8--4-x8--4x8--|
E|--0-----5-----------2-----|


Bridge:
e|------------------------------|
B|------------------------------|
G|------------------------------|
D|---4------7------11-----9-----|
A|---4-x16--7-x16--11-x8--9-x8--|
E|---2------5------9------7-----|
(^not sure if you palm mute here^)
(^^whatever you think works :)^^^)


Solo: (I havent quite figured it out but you can just play the chorus twice during the solo.
I know there are other tabs that have the solo so if you need the solo you can look 
but I dont think they are 100%)

e|--------------------------|
B|--------------------------|
G|--------------6-----------|
D|--2-----7-----6-----4-----| x2
A|--2-x8--7-x8--4-x8--4x8--|
E|--0-----5-----------2-----|

CHORUS 3: (you can play the regular chorus or use a high E on the second time through.  
you like will work)
e|--------------------------|
B|--------------------------|
G|--------------6-----------|
D|--2-----7-----6-----4-----|
A|--2-x8--7-x8--4-x8--4x8--|
E|--0-----5-----------2-----|

e|--------------------------|
B|--------------------------|
G|--------------6-----------|
D|--9-----7-----6-----4-----|
A|--9-x8--7-x8--4-x8--4x8--|
E|--7-----5-----------2-----|

e|--------------------------|
B|--------------------------|
G|--------------6-----------|
D|--2-----7-----6-----4-----|
A|--2-x8--7-x8--4-x8--4x8--|
E|--0-----5-----------2-----|

e|---------------------------------|
B|---------------------------------|
G|--------------6------------------|
D|--2-----7-----6-----4-----7------|
A|--2-x8--7-x8--4-x8--4x8-7-x16--|
E|--0-----5-----------2-----5------|


Post-Chorus/Ending:
e|----------------------|
B|----------------------|
G|--8/9-8/9-8/9-8/9-----|
D|--8/9-8/9-8/9-8/9-7~--| x3
A|--6/7-6/7-6/7-6/7-7~--|
E|------------------5~--|

e|---------------|
B|---------------|
G|--8/9-8/9-8/9--|
D|--8/9-8/9-8/9--| x3
A|--6/7-6/7-6/7--|
E|---------------|
Related for Who Said tab