Song name
# A B C D E F G H I J K L M N O P Q R S T U V W X Y Z

Hannah Montana - Ive Got Nerve tab

Help us improve GuitareTab! Take a short survey!
Well, I think this song is very good, many guitarists want to play this song and why 
left this tab, if I'm wrong, I must correct it, thanks. This tab is met, in a Guitar Pro 
for one person.
The Song Ive Got Nerve is this:

Intro
E------------------------------------------------|
B------------------------------------------------|
G------------------------------------------------|
D-8-8---8-8---8-8--5-6---------------------------|
A-6-6---6-6---6-6--3-4---------------------------|
E------------------------------------------------|

Verse
E------------------------------------------------|
B------------------------------------------------|
G------------------------------------------------|
D------------------------------------------------|
A-6-6---6-6---8-8---8-8---5-5---5-5---6-6---6-6--|
E-6-6---6-6---6-6---6-6---3-3---3-3---4-4---4-4--|

Pre-Chorus: This part is not repeated, only repeats the party continues.
E------------------------------------------------|
B------------------------------------------------|
G------------------------------------------------|
D------------------------------------------------|
A-6-6-6-6-6-6-6-6---3-3-3-3-3-3-3-3--------------|
E-4-4-4-4-4-4-4-4---1-1-1-1-1-1-1-1--------------|

This part is repeated x2.
E------------------------------------------------|
B------------------------------------------------|
G------------------------------------------------|  x2
D------------------------------------------------|
A--10-10-10-10-10-10-10-10-----------------------|
E--8--8--8--8--8--8--8--8------------------------|


E------------------------------------------------|
B------------------------------------------------|
G------------------------------------------------|
D------------------------------------------------|
A-6-6-6-6-6-6-6-6---8-8-8-8-8-8-8-8--------------|
E-4-4-4-4-4-4-4-4---6-6-6-6-6-6-6-6--------------|

Chorus: The Chorus is Repeated x2.
E------------------------------------------------|
B------------------------------------------------|
G-8-8-8-8-8-8-8-8---8-8-8-8-8-8-8-8--------------|
D-8-8-8-8-8-8-8-8---6-6-6-6-6-6-6-6--------------|
A-6-6-6-6-6-6-6-6--------------------------------|
E------------------------------------------------|
                                                         x2
E---------------------------------------------------|
B---------------------------------------------------|
G-12-12-12-12-12-12-12-12---10-10-10-10-10-10-10-10-|
D-10-10-10-10-10-10-10-10----8--8--8--8--8--8--8--8-|
A---------------------------------------------------|
E---------------------------------------------------|

Bridge
E------------------------------------------------|
B------------------------------------------------|
G------------------------------------------------|
D-8-8---8-8--5-6---------------------------------|
A-6-6---6-6--3-4---------------------------------|
E------------------------------------------------|

And after all this, everything is repeated, except the intro.
I hope you like it.
                                    Felipe-Jonas-B.

NOTE: See the tab that I did I wan'na Be Like You, the Jonas Brothers and should correct 
or comment.
Related for Ive Got Nerve tab