Song name
# A B C D E F G H I J K L M N O P Q R S T U V W X Y Z

Hannah Montana - Other Side Of Me tab

This is one of my favorite Hannah Montana songs next to "I Got Nerve." Anyways here's 
video for the whole song if you want to hear it.

http://www.youtube.com/watch?v=M6a3DfyO4bQ


intro:
e-------------------------------|
b--5-5-4-5-7-4---5-5-10-9-7-4---|
g--x-x-x-x-x-x---x-x-x--x-x-x---|
d--2-2-1-2-4-2---2-2-7--6-4-2---|
a-------------------------------|
e-------------------------------|


N.C at this part: "by day, I play..." and the rest of the verse.

pre-chorus:
e-----------------------------------------------------------------------|
b--7------------------3----------------7----------------------5---------|
g--10-----------------6----------------10---------------------8---------|
d-----------------------------------------------------------------------|
a-----------------------------------------------------------------------|
e-----------------------------------------------------------------------|
   feel like a star   a super hero   sometimes it hard to seperate . . .


chorus:

e----------------------------------------------|
b--12-12-12-12-------------9-9-9-9-------------|
g--11-11-11-11-11-11-11-11-8-8-8-8-11-11-11-11-|
d--9--9--9--9--11-11-11-11-6-6-6-6-11-11-11-11-| x2
a--------------9--9--9--9----------9--9--9--9--|
e----------------------------------------------|

  if you ...  see...     the other.. me...

e--------------------------------------|
b--7-7-7-7-5-5-5-5-7-7-7-7-5-5-5-5-----|
g--6-6-6-6-4-4-4-4-6-6-6-6-4-4-4-4-----|
d--4-4-4-4-2-2-2-2-4-4-4-4-2-2-2-2-----|
a--------------------------------------|
e--------------------------------------|
 the girl..you to..if only..show

e-----------------------------------------|
b-----------------------------------------|
g--9-9-9-9-9-9-9-9--11-11-11-11--9-9-9-9--|
d--9-9-9-9-9-9-9-9--11-11-11-11--9-9-9-9--| x2
a--7-7-7-7-7-7-7-7--9--9--9--9---7-7-7-7--|
e-----------------------------------------|

 the other side...the other side of me...


well that's it. please comment on it.
Tap to rate this tab
 
# A B C D E F G H I J K L M N O P Q R S T U V W X Y Z