Song name
# A B C D E F G H I J K L M N O P Q R S T U V W X Y Z

Hannah Montana - We Got The Party With Us tab

Listen to the music for the correct guitar rhythm in the beginning.

 Come on guys tell me what we're doing we're hanging around when we could
e-----------------------------------------------------------------------|
b-----------------------------------------------------------------------|
g-----------------------------------------------------------------------|
d-----------------------------------------------------------------------|
a- 2--2--2--2--2--2--2--2--2--2--4--2--2--2--2--2--2--2--2--2--2--2--2--|
e-----------------------------------------------------------------------|

 be all over the place. The sun is shinin' just the way we like it
e-----------------------------------------------------------------------|
b-----------------------------------------------------------------------|
g-----------------------------------------------------------------------|
d-----------------------------------------------------------------------|
a-2--2--4--2--2--0------2--2---2---2---2---2---2---2---2---2---2-4-2----|
e-----------------------------------------------------------------------|
 Lets get out of this hallway Show the world our face.
e-----------------------------------------------------------------------|
b-----------------------------------------------------------------------|
g-----------------------------------------------------------------------|
d-----------------------------------------------------------------------|
a-2---2---2---2---2---2---2---2---2---4-----------0---------------------|

 It's Friday but there's nowhere to go. Anywhere is cool but we're not
e------------------------------------------------------------------------|
b------------------------------------------------------------------------|
g------------------------------------------------------------------------|
d------------------------------------------------------------------------|
a-2--2--2--2--2--2--2--2-0-0-0-0-0-0-0--2----2----2----2-----2-----2--0--|

 going home And we can do anything we wanna do. Its all up to me and you
e-------------------------------------------------------------------------|
b-------------------------------------------------------------------------|
g-------------------------------------------------------------------------|
d-------------------------------------------------------------------------|
a0-0-0-0-0--2---2---2---2---2---2---2-00000000----2----2----2----2--------|
e---------------------------------------------------------------------0/5-|
                     CHORUS   (Lyric notes)

 Turn this park into a club the stars are lights and the moon is a vibe
e-7-----7---7----7---7---5---5----5----5-----4----4----4---4---4-4---5---|
b------------------------------------------------------------------------|
g------------------------------------------------------------------------|
d------------------------------------------------------------------------|
a------------------------------------------------------------------------|
e------------------------------------------------------------------------|

 from above skateboard heres our ride so cool Oh look everyone is waiting
e--5---4-5---7-----7----7----7----5--5----5---5---4----4---4---4--5---5---|
b-------------------------------------------------------------------------|
g-------------------------------------------------------------------------|
d-------------------------------------------------------------------------|
a-------------------------------------------------------------------------|
e-------------------------------------------------------------------------|
 for us. So anywhere we are anywhere we go everybody knows We got the
e-4---5---2-2-2--2---0---2--2-2--2---0--2--2--2-2-2---2------------------|
b-------------------------------------------------------0--0---0---0-----|
g------------------------------------------------------------------------|
d------------------------------------------------------------------------|
a------------------------------------------------------------------------|
e------------------------------------------------------------------------|

 party with us. Anywhere we are anywhere we go everybody knows we got the
e---------------2-2-2----0---2--2-2-2----0--2--2-2--2-2---2--------------|
b-2-0---0---0----------------------------------------------0---0---0---0-|
g------------------------------------------------------------------------|
d------------------------------------------------------------------------|
a------------------------------------------------------------------------|
e------------------------------------------------------------------------|

 party with us. oh oh oh oh oh oh oh oh oh oh oh oh oh oh oh oh oh oh
e-------------- 7-7-7-7-5-5-5-5-4-4-4-4-5-5-4-5-5-4-7-7-7-7-5-5-5-5-7-|
b-2-0---2---0---------------------------------------------------------|
g---------------------------------------------------------------------|
d---------------------------------------------------------------------|
a---------------------------------------------------------------------|
e---------------------------------------------------------------------|

 We Got The Party With Us.
e-------------------------|
b-0--0---0---2-0---0----0-|

The verse music doesn't change and neither does the chorus so just repeat
the above tabs as needed with the song and have fun.
Tap to rate this tab
# A B C D E F G H I J K L M N O P Q R S T U V W X Y Z