Song name
# A B C D E F G H I J K L M N O P Q R S T U V W X Y Z

Hannah Trigwell - Headrush tab

Song Title: Headrush
Singer: Hannah Trigwell
Tabbed by: Shala 09/09/2011

This is a new single off Hannah's EP 'Not Enough'. I'm pretty sure this is how Hannah 
plays it, but I tabbed this in a hurry so there may be some slight mistakes. But it sounds 
fine to me now unless someone picked up a glitch, do share. Enjoy!

Capo on 2nd fret

VERSE:
e|------------------------------------|------------------------------------|
B|-----0--------0--------0--------0---|-----0--------0--------0--------0---|
G|---4--------4--------4--------4-----|---4--------4--------4--------4-----|
D|-------4--------4--------4--------4-|-------4--------4--------4--------4-|
A|-2--------2--------2--------2-------|-0--------0--------0--------0-------|
E|------------------------------------|------------------------------------|

e|------------------------------------|------------------------------------|
B|-----0--------0--------0--------0---|-----0--------0--------0--------0---|
G|---4--------4--------4--------4-----|---4--------4--------4--------4-----|
D|-------4--------4--------4--------4-|-------4--------4--------4--------4-|
A|------------------------------------|------------------------------------|
E|-4--------4--------4--------4-------|-2--------2--------2--------2-------|

REPEAT VERSE

BRIDGE:
e|------------------------------------|------------------------------------|
B|-----0--------0--------0--------0---|-----0--------0--------0--------0---|
G|---4--------4--------4--------4-----|---4--------4--------4--------4-----|
D|-------4--------4--------4--------4-|-------4--------4--------4--------4-|
A|------------------------------------|------------------------------------|
E|-4--------4--------4--------4-------|-2--------2--------2--------2-------|

e|------------------------------------|------------------------------------|
B|-----0--------0--------0--------0---|-----0--------0--------0--------0---|
G|---4--------4--------4--------4-----|---4--------4--------4--------4-----|
D|-------4--------4--------4--------4-|-------4--------4--------4--------4-|
A|------------------------------------|------------------------------------|
E|-0--------0--------0--------0-------|-0--------0--------0--------0-------|

CHORUS
e|------------------------------------|------------------------------------|
B|-----0--------0--------0--------0---|-----0--------0--------0--------0---|
G|---4--------4--------4--------4-----|---4--------4--------4--------4-----|
D|-------4--------4--------4--------4-|-------4--------4--------4--------4-|
A|-2--------2--------2--------2-------|-4--------4--------4--------4-------|
E|------------------------------------|------------------------------------|

e|------------------------------------|------------------------------------|
B|-----0--------0--------0--------0---|-----0--------0--------0--------0---|
G|---4--------4--------4--------4-----|---4--------4--------4--------4-----|
D|-------4--------4--------4--------4-|-------4--------4--------4--------4-|
A|------------------------------------|------------------------------------|
E|-0--------0--------0--------0-------|-4--------4--------2--------2-------|


Repeat the same pattern for the rest of the song (you get my drift).

Any comments/feedback email me at shala_lee@hotmail.com
Tap to rate this tab
# A B C D E F G H I J K L M N O P Q R S T U V W X Y Z