Song name
# A B C D E F G H I J K L M N O P Q R S T U V W X Y Z

Hannah - Take My Leave tab

this is a little known artist but quite good. fans of alanis
and dinosaur jr will know where she's coming from.

there's this chord she plays i'm not sure what it is,
i've called it X and it looks like this :

----------------
-----3----------
-----3----------
-----3----------
----------------
----------------


intro:
------------------0--------------------------3-----------------------0------
-------------2------2----------------3---3-----3----------------2------2----
--------2------2------2------------3---3---3-----3---------2-------2-----2--
------2---2---------------------3------------------------2---2--------------
----0--------------------------------------------------0--------------------
----------------------------------------------------------------------------

strum A

            Am                                              X
You were supposed to come in right behind me, I got to the other side and you 
           A
weren't there
Am                             X                             A                  
Now i see you walk away, you got to the other side and left me there
Am                                            X
You look at me, your bright eyes close, I remember when they used to shine like 
     A
the sun
             Am                       X                     A
If you're wondering why I care at all, you wouldn't be the first one

chorus:
    G                                        D        
If I'd have known i wouldn't have come to watch you leave, i shouldn't have 
                A
come to leave you
     G                                        D                             A
I always knew, they'd always said, I won't give up, until you've gone and left 

me

Am                                     X                                  A     
now I've missed the last train home I know too well that you won't come and get 

me
      Am                                    X                            
and when you're thinking on your own you forget to remember the lessons that 
       A
i've taught you

     G                                       D
If i'd have known i wouldn't have come to watch you leave, I shouldn't have 
          A
come to leave you
     G                               D                                    A 
I always knew they'd always said, i won't give up, until you've gone and left me

then strum G, D, A

i think that's right
Tap to rate this tab
 
# A B C D E F G H I J K L M N O P Q R S T U V W X Y Z