Song name
# A B C D E F G H I J K L M N O P Q R S T U V W X Y Z

Hanni El Khatib - House On Fire tab

----------------------------------------------------------------------------
Hanni El Khatib - HOUSE ON FIRE
----------------------------------------------------------------------------
Tabbed by: Android2020
Listen to the song for the rhythm, feel free to correct or add missing part.
Enjoy.
    A       F#m       D        G  
e|-----  e|--2--  e|--5--  e|--3--  
B|--2--  B|--2--  B|--7--  B|--3--  
G|--2--  G|--2--  G|--7--  G|--4--  
D|--2--  D|--4--  D|--7--  D|--5--  
A|-----  A|--4--  A|--5--  A|--5--  
E|-----  E|--2--  E|-----  E|--3--  

A
Drop me off at my car
F#m
I know I'm drunk but it ain't that far
A
Promise that I'll get home safe
F#m
(Can't be talked better it's too late)?
D                               A
And the people will forgive it tomorrow
F#m                            G
But I know that you still feel hollow...

A                                          
It's dangerous to love each other with the 
F#m                                  
house on fire but I know that we can 
A                            F#m
put up the fire if we try it tonight
(x2)

A
Ending up is harder these days
F#m
And I feel so strange in this place
A
'Cause the mirror on my head 
F#m
feels better when you're not upset
D                                 A
And I won't change your notes for truth
F#m                          G
But there ain't much you can do...

A                                          
It's dangerous to love each other with the 
F#m                                  
house on fire but I know that we can 
A                            F#m
put up the fire if we try it tonight
(x2)

****BRIDGE****
     A                     A                     F#m
e|---------------------|----------------------|--2-2-----------------|
B|--2-3p2--------------|--2-2-----------------|--2-2-----------------|
G|--2----2-------------|--2-2-----------------|--2-2-----------------|
D|--2------------------|--2-2-----------------|--4-4-----------------|
A|---------------------|----------------------|--4-4-----------------|
E|---------------------|----------------------|--2-2-----------------|
 
    A                      F#m                    A   
e|----------------------|--2-2----x-x--x-x-x--|----------------------|
B|--2-2----------5------|--2-2----x-x--x-x-x--|--2-2---7-7b8r7-7-5~--|
G|--2-2-----2-4/6-6-4-2-|--2-2----x-x--x-x-x--|--2-2-----------------|
D|--2-2--2-4------------|--4-2----x-x--x-x-x--|--2-2-----------------|
A|----------------------|--4-2----x-x--x-x-x--|----------------------|
E|----------------------|--2-2----x-x--x-x-x--|----------------------|

    F#m                      A                   F#m
e|--2-2------------------|--------------------|--2-2-----------------|
B|--2-2------------------|--2-2-3p2--3p2------|--2-2-----------------|
G|--2-2---------2--------|--2-2----2----2-----|--2-2-----------------|
D|--4-4------2-4---------|--2-2---------------|--4-4-----2222-2h4p2-2|
A|--4-4---2-4------------|--------------------|--4-4--2-4------------|
E|--2-2------------------|--------------------|--2-2-----------------|

A
Standing in the morning
F#m
Standing in the eve'
A
And I can't believe
F#m
That you're staying with me
(x2)

A                                          
It's dangerous to love each other with the 
F#m                                  
house on fire but I know that we can 
A                            F#m
put up the fire if we try it tonight
(x2)

A               F#m
If we try it tonight... (x4)
Tap to rate this tab
# A B C D E F G H I J K L M N O P Q R S T U V W X Y Z