Guitaretab - guitar tabs
Song name
# A B C D E F G H I J K L M N O P Q R S T U V W X Y Z

Hanoi Rocks - People Like Me tab

People like me
Hanoi rocks

Intro:
  C#5  E5 F#5  B5 C#5  E5 C#5 E5  F#5   F#5
|----|---|---|---|---|---|---|---|----|---------------------------|
|----|---|---|---|---|---|---|---|----|---------------------------|
|--6-|-9-|-11|-4-|-6-|-9-|-6-|-9-|-11-|--11-11-11-11r9----9-------|
|--6-|-9-|-11|-4-|-6-|-9-|-6-|-9-|-11-|----------------11---11----|
|--4-|-7-|-9-|-2-|-4-|-7-|-4-|-7-|-9--|---------------------------|
|----|---|---|---|---|---|---|---|----|---------------------------|

Guitar solo: C#m E B  E

C#m                                   E
    You need someone to point your finger at
             B                      A
Well yeah, Iím your man, Iím everything you lack
C#m                      E
Someone to kick around when Iím down
        B                     E -Esus4 -E     
Maybe steal my credit where success is found
C#m                      E
Yeah, one once mightíve had a hit
              B                           A
But thatís yesterdayís news, now no one gives a shit
C#m                  E
In the void of my depression time
   B                        E -Esus4 -E 
I fought my way back to a better life

Chorus: 
        C#m       E   
BUT IíM SO JADED, DREAMS FADED
      B               A
ITíS HARDER THAN YOU THINK
C#m            E
LOVED, HATED, FRUSTRATED
B               A
IíM THE MISSING LINK
B                                    C#m
RADIO AND MTV - YOU NEED PEOPLE LIKE ME

(Intro)
[ Tab from: http://www.guitaretab.com/h/hanoi-rocks/104369.html ]
C#m                   E
   I never did pussy-foot around
          B                     A               
Or trade King for a day for a lifetime clown
C#m                      E
  I donít look back or before I leap
   B                  E -Esus4 -E 
I get my kicks and I take the heat

Chorus:

    C#m        E   
IíM SO JADED, DREAMS FADED
      B               A
ITíS HARDER THAN YOU THINK
C#m            E
LOVED, HATED, FRUSTRATED
B               A
IíM THE MISSING LINK
B                                    C#m
RADIO AND MTV - YOU NEED PEOPLE LIKE ME

Guitar solo:  |: C#m   E   B     A :|  B

Chorus:

C#m         E
SO JADED, FRUSTRATED
B             E
LIVINí ON A BRINK
     C#m           E
YOU NEED OFF ME, LEAN ON ME
B                 A
IíM THE BEAT YOU MISSED

C#m        E
SO JADED, DREAMS FADED
       B              A
ITíS HARDER THAN YOU THINK
C#m             E
LOVED, HATED  I MADE IT
B                A
IíM THE MISSING LINK
B                                    C#m
RADIO AND MTV  YOU NEED PEOPLE LIKE ME!

(Intro): C#5  E5 F#5  B5 C#5  E5 C#5 E5  F#5 
          B                                   C#m

I SAID, RADIO AND MTV - YOU NEED PEOPLE LIKE ME!
(Intro)

Youíll like me!

  C#5  E5 F#5  B5 C#5  E5 C#5 E5  F#5   F#5
|----|---|---|---|---|---|---|---|----|---------------------------|
|----|---|---|---|---|---|---|---|----|---------------------------|
|--6-|-9-|-11|-4-|-6-|-9-|-6-|-9-|-11-|--11-11-11-11r9----9-------|
|--6-|-9-|-11|-4-|-6-|-9-|-6-|-9-|-11-|----------------11---------|
|--4-|-7-|-9-|-2-|-4-|-7-|-4-|-7-|-9--|---------------------------|
|----|---|---|---|---|---|---|---|----|---------------------------|

|--14-14-14-14-12----12------|
|-----------------12----12->-|
|----------------------------|
|----------------------------|
|----------------------------|
|----------------------------|

Related for People Like Me tab