Guitaretab - guitar tabs
Song name
# A B C D E F G H I J K L M N O P Q R S T U V W X Y Z

Hanoi Rocks - 11th Street Kids tab

Sorry, not even the whole intro... But I like the tune :P I think it's right.

E||-------------------------|---------------------------|
B||---------7----8----7--8--|--8b------7--8----------7--|
G||*--/7--------------------|----------------7----7-----|
D||*------------------------|---------------------------|
A||-------------------------|---------------------------|
E||-------------------------|---------------------------|

[ Tab from: http://www.guitaretab.com/h/hanoi-rocks/104373.html ]
                           
--------------------------|--------------------------------||
--8b----7--8----------7---|--------------------------------||
---------------7----7-----|--9b--7-----6h7p6--------------*||
--------------------------|------------------7------------*||
--------------------------|--------------------------------||
--------------------------|--------------------------------||


h - hammer on
p - pull off
b - bend
Related for 11th Street Kids tab
Advertisement will be closed in 10 seconds