Song name
# A B C D E F G H I J K L M N O P Q R S T U V W X Y Z

Hanoi Rocks - Fashion tab

                          Hanoi Rocks - Fashion
       I like this song and saw nobody has tabbed it out(only chords)so i do :P

-------------------------------------------------------------------|
-------------------------------------------------------------------|
-------------------------------------------------------------------|
-----------2-----2------------2-4--2-----2-0h2p0-------------------|
-2----2--5-----5---0----0-2-5---------5----------4-2---------------|
-------------------------------------------------------------------|

------------------------------------------------------------|
------------------------------------------------------------|
------------------------------------------------------------|
-----------2-----2------------2-4--2-----2-0h2p0------------|
-2----2--5-----5---0----0-2-5---------5----------4-2--------|
------------------------------------------------------------|
Tap to rate this tab
 
# A B C D E F G H I J K L M N O P Q R S T U V W X Y Z