Song name
# A B C D E F G H I J K L M N O P Q R S T U V W X Y Z

Hanoi Rocks - Tragedy tab

Help us improve GuitareTab! Take a short survey!
Highlighted       Show chord diagrams
###################################
#HANOI ROCKS: TRAGEDY (Andy McCoy)#
###################################
Albumilta Bangok Shocks, Shaigon Shakes, Hanoi Rocks


Em 		( soita tdmd 4x )
	|-------------------------------|
	|----10-10-8__--10-10-8---------|
	|-----9--9-9__---9--9-9---7h8h9-|
	|------------------------9------|
	|-------------------------------|
	|-------------------------------|

  Em
1.Well the music's slowly dying and I'm jumping out of my jeans
Em
I jump into the bed, you're there already waiting for me
C	        G              Bm
 Ain't this a perfect way to spend the nite
C		 G		B7 (B5)			   Em
 There ain't no better way of killing time, than loving you.....
Em
It's reach top speed and I'm getting inside of you
Em
this is hot stuff mama taste it, sure tastes good
C	      G                      	   Bm
 It's maybe cold outside, but in you the fire's burning
C 	       G	            B7 (tai B5)
 and when you bite me woman I know love is hurting

Kertosde:
      G   		          D                   D Eb C
Oh tragedy, life reminds 'bout a symphony on the radio
C						G	D
first a little bit too fast  then a little bit much too slow
      G                             D                   D
C
Oh tragedy life reminds me 'bout a symphony i heard today
C                                                G        D
first a little bit too fast  then a little bit much too slow
      Em
for me

 Em
2. woke up in the morning and I feel a pain in my head
Em
If it's rest I need I'd rather be dead
C			 G          Bm
 No destination in this life that I live
C			B5
 No expecations I just drift and drift and drift

(Kertosde uudestaan)

Soolo:
      G	    A	B       D A  G
     B
|--------|-----|------|----|-----|-----|-----  |
|--------|-----|------|----|-----|-----|-----  |
|--------|-----|------|----|-----|-----|----  O|  (kertaus)
|--------|-----|------|0--2|-----|-----|----- O|
|--------|-0--0|-2-0-2|----|-----|0--0-|2__--- |
|---3-0-3|--3--|------|----|3-0-3|--3--|------ |

   Em         Bm	Em
|------15~-|----14~-|          |
|----12~---|--14~---|          |
|--12~-----|14~-----|         O| (kertaus)
|----------|--------|         O|
|----------|--------|          |
|----------|--------|          |

My Hotmail and Msn: viktor_krizan@hotmail.com
Related for Tragedy tab