Song name
# A B C D E F G H I J K L M N O P Q R S T U V W X Y Z

Hans Bollandsaas - Moments tab

Hans Bollandås
Moments Intro

Chords: D, Bm and G (I think)



E|----------------------2------------------------2-----------|
B|-------3/7/5/3--3---3---3-------3/7/5/3--3---3---3---------|
G|-----2------------2-------2---2------------4-------4---4---|
D|---0------------0-----------0------------------------------|
A|-----------------------------------------2-----------2-----|
E|-----------------------------------------------------------|


E|--------------------0-----------3-----------2--------------|
B|---2-2/7/5/2--2---3---3-------3---3-------3---3------------|
G|----------------0-------0---0-------0---2-------2----------| And then
D|--------------------------------------0--------------------| start over
A|-----------------------------------------------------------|
E|--------------3-----------3--------------------------------|

This is also the verse

Tabbed by EivaHjort
Tap to rate this tab
 
# A B C D E F G H I J K L M N O P Q R S T U V W X Y Z