Song name
# A B C D E F G H I J K L M N O P Q R S T U V W X Y Z

Hans Neusidler - Welscher Tanz Wascha Mesa tab

Lute Tuning: E A D F# B E

[see note re timing at end]

80 bpm

-1-0-1-3-1-0-3-1-0-------0-3-1-0-1-0-------------0-------0--0-1-0-1-3-1-0-3---|
-------------------------------------3-1---3-2-0-2-0-2-3-2--2-----------------|
-3-------3-------1-0-1-3-1-------3---------------3-------3--3-3-------3-------|
-0-------0-----------------------0----------------------------0-------0-------|
-----------------3-------3---------------0-------0-------0--------------------|
------------------------------------------------------------------------------|
 . e + a . e + a . e + a . e + a . e + a . e + a . e + a .  + . e + a . e +

-1-0-------0-3-1-0-1---0---0-----------------------5---5---5---3-1-0-------0--|
-------------------------3-2---3-2-3---3-2-3---3---3---3---3------------------|
---1-0-1-3-1-------3-------3---------3-----------------------------1-0-1-3-1--|
-------------------0---------------0-------0-------0-------0------------------|
---3-------3---------------0---------------------------------------3-------3--|
------------------------------------------------------------------------------|
 a . e + a . e + a .   + a .   + a . e + a .   +   .   +   .   + a . e + a .

-3-1-0-1-0-------0-1-3-5---5---5---5---5---5---5---3-1-0-------0-3-1-0-1-0----|
-----------3-1-3-------3---3---3---3---3---3---3---------------------------3--|
-------3-------3---------------------------------------1-0-1-3-1-------3------|
-------0-------0-------0-------0-------0-------0-----------------------0------|
-------------------------------------------------------3-------3--------------|
------------------------------------------------------------------------------|
 e + a . e + a . e + a .   +   .   +   .   +   .   + a . e + a . e + a . e +

-----0-1-3-5---5---5---5---1-0-1-3-1-0-3-1-0-------0-3-1-0-1---0---0----------|
-1-3-------3---3---3---3-----------------------------------------3-2---3-2-3--|
---3-----------------------3-------3-------1-0-1-3-1---------------3----------|
---0-------0-------0-------0-------0-----------------------0---------------0--|
-------------------------------------------3-------3---------------0----------|
------------------------------------------------------------------------------|
 a . e + a .   +   .   +   . e + a . e + a . e + a . e + a .   + a .   + a .

-------------1-0-1-3-1-0-3-1-0-------0-3-1-0-1---0---0---------------------1--|
---3-2-3---3---------------------------------------3-2---3-2-3---3-2-3---3-1--|
-3-----------3-------3-------1-0-1-3-1-------3-------3---------3-----------3--|
-------0-----0-------0-----------------------0---------------0-------0--------|
-----------------------------3-------3---------------0------------------------|
---------------------------------------------------------------------------1--|
 e + a .   + . e + a . e + a . e + a . e + a .   + a .   + a . e + a .   + .

---1-----------0-------0-3-1-0-1-0-------------0-------0---0-1---1------------|
---1-------------------------------3-1---3-2-0-2-0-2-3-2---2-1---1------------|
---3-----------1-0-1-3-1-------3---------------3-------3---3-3---3------------|
-------------------------------0----------------------------------------------|
-----------0-2-3-------3---------------0-------0-------------------------0-2--|
---1---1-3---------------------------------------------------1---1---1-3------|
   +   . e + a . e + a . e + a . e + a . e + a . e + a .   + .   +   . e + a

-0-------0-3-1-0-1---0---0----------------------------------------------------|
-----------------------3-2---3-2-3---3-2-3-3----------------------------------|
-1-0-1-3-1-------3-------3---------3-------3----------------------------------|
-----------------0---------------0---------0----------------------------------|
-3-------3---------------0----------------------------------------------------|
------------------------------------------------------------------------------|
 . e + a . e + a +   + a .   + a . e + a . +


["The e + a is simply a method of counting,
e.g.= " one e and uh" is  . e + a  on my file.
This is just a simple method I use;
another example is . + a for one and uh two and uh , etc.
to keep time."]
Tap to rate this tab
# A B C D E F G H I J K L M N O P Q R S T U V W X Y Z