Song name
# A B C D E F G H I J K L M N O P Q R S T U V W X Y Z

Hans Neusidler - Der Hupff Auff tab

Lute tuning: E A D F# B E

This piece usually accompanies the "welscher tanz."


-1-0-1-3-1-1---1-0-0---0---0-0-0-0-0-----------------1-0-1-1---1-0-0---0---0--|
---------------------------------------3-2-2---2---2--------------------------|
-----------3---3-1-1---1---1-1-1---1-----3-3---3---3-3-----3---3-1-1---1---1--|
-0-------0---0---------------------------------------0-------0----------------|
-----------------3---3---3---3---3---3---0---0---0---------------3---3---3----|
------------------------------------------------------------------------------|
 . e + a . + . + . a . + . + . a . + . + . a . + . + . a . + . + . a . + . +

-1-0---------------------1-0-1-1---1-0-0---0---0-1-0---------------------5-5--|
-----3-2-3-2-3-3---3---3-----------------------------3-2-3-2-3-3---3---3-3-3--|
-3-----------3-3---3---3-3-----3---3-1-1---1---1-3-----------3-3---3---3------|
-0-----------0---0---0---0-------0---------------0-----------0---0---0---0----|
-------0-----------------------------3---3---3---------0----------------------|
------------------------------------------------------------------------------|
 . a . + . + . a . + . + . a . + . + . a . + . + . a . + . + . + . + . + . a

---5-3-1-0-0---0---0---1-0-1-0-----------------5-5---5-3-1-0-0---0---0-1-0----|
---3-------------------------2---3-2-2---2---2-3-3---3---------------------3--|
---------1-1---1---1---3-----------3-3---3---3-------------1-1---1---1-3------|
-0-----0---------------0-----------------------0---0-----0-------------0------|
---------3---3---3-------------0-------0---0---------------3---3---3----------|
------------------------------------------------------------------------------|
 . + . + . a . + . +   . a . + . + . + . + . + . a . + . + . a . + . + . a .

-------------------1-0-1-1---1-0-0---0-5-3-1-0---------------------1-0-1-1----|
-2-3-2-3-3---3---3-----------------------------3-2-3-2-3-3---3---3------------|
-------3-3---3---3-3-----3---3---1---1-----3-----------3-3---3---3-3-----3----|
-------0---0---0---0-------0---------------0-----------0---0---0---0-------0--|
-0-----------------------------3---3-------------0----------------------------|
------------------------------------------------------------------------------|
 + . + . + . + . + . a . + . + . + . + . + . a . + . + . + . + . + . a . + .

-1-0-0-0-5-3-1-0--------------------------------------------------------------|
-----------------3-2-3-2-3-3---3----------------------------------------------|
-3---1-------3-----------3-3---3----------------------------------------------|
-------------0-----------0---0---0--------------------------------------------|
---3---3-----------0----------------------------------------------------------|
------------------------------------------------------------------------------|
 + . a . + . + a . + . + . + . + .
Tap to rate this tab
# A B C D E F G H I J K L M N O P Q R S T U V W X Y Z