Hans Newsidler - Italian Dance tab

E-|---Song:-Italiand-Dance-------------------------|
A-|---Composer:-Hans-Neusidler---------------------|
D-|---Transcription-by:Christian Liang-------------|
G-|---E-Mail:christian.liang@gmail.com-------------|   
B-|---http://www.chrisliang.com--------------------|
E-|---Enjoy!---------------------------------------|

==========================================================================
              Italian Dance by Hans Neusidler (15081563)
==========================================================================

Standard Tuning
Time Signature: 4/4
Tempo: Brisk
Key: A minor

[1]
E|--1--0--1--3--1--0--3--1--|--0==========-0--3--1--0--|
B|--------------------------|--------------------------|
G|--2==========-2==========-|--0-----0--2--0==========-|
D|--0==========-0-=========-|-----4--------------------|
A|--------------------------|--3==========-3==========-|
E|--------------------------|--------------------------|
 |  |  |  |  |  |  |  |  |  |  |  |  |  |  |  |  |  |  |  
R   a  a  m  i  a  a  m  i     a  i  m  i  a  a  m  i
    i           i              i           i
    p           p              p           p

L   1     1  4  1     4  1     3  4     2  3  4  1
    2           2


[3]
E|--1--0--------------------|--0==========-0-----0-----|
B|--------3--1===--3--2--0--|--2--0--2--3--2-----2-----|
G|--2======================-|--------------------------|
D|--0===========------------|--------------------------|
A|--------------0===========|--0==========-0==========-|
E|--------------------------|--------------------------|
 |  |  |  |  |  |  |  |  |  |  |  |  |  |  |  |  |  |  |  
R   a  a  m  i  p  a  m  i     a  i  m  i  a     a
    i                          m           m     m
    p                          p           p     p

L   1     4  1     4  3        2     2  4  2     2
    2

[5]
E|--1--0--1--3--1--0--3--1--|--0==========-0--3--1--0--|
B|--------------------------|--------------------------|
G|--2==========-2==========-|--0-----0--2--0==========-|
D|--0==========-0==========-|-----4--------------------|
A|--------------------------|--3==========-3==========-|
E|--------------------------|--------------------------|
 |  |  |  |  |  |  |  |  |  |  |  |  |  |  |  |  |  |  |  
R   a  a  m  i  a  a  m  i     a  a  m  i  a  a  m  i
    i           i              i           i
    p           p              p           p

L   1     1  4  1     4  1     3  4     2  3  4  1
    2           2

[7]
E|--1-----0-----------------|--------------------------|
B|-----------3--2-----3--2--|--3-----3--2--3-----3-----|
G|--2======================-|-----2--------2-----2-----|
D|--0===========------------|--0==========-0==========-|
A|--------------0==========-|--------------------------|
E|--------------------------|--------------------------|
 |  |  |  |  |  |  |  |  |  |  |  |  |  |  |  |  |  |  |  
R   a     m  i  m     m  i     m  i  m  i  m     m
    i           p              p           i     i
    p                                      p

L   1        4  3     4  3     4  2  4  3  4     4
    2                                      2     2

[9]
E|--5-----5-----5-----3--1--|--0==========-0--3--1--0--|
B|--3-----3-----3-----------|--------------------------|
G|--------------------------|--0-----0--2--0==========-|
D|--0==========-0==========-|-----4--------------------|
A|--------------------------|--3==========-3==========-|
E|--------------------------|--------------------------|
 |  |  |  |  |  |  |  |  |  |  |  |  |  |  |  |  |  |  |  
R   m     m     m     m  a     a  i  m  i  a  m  a  m  
    i     i     i              m           m
    p           p              p           p

L   4     4     4     4  1     3  4     2  3  4  1
    1     1     1

[11]
E|--1--0-----------0--1--3--|--5-----5-----5-----5-----|
B|--------3--1--3-----------|--3-----3-----3-----3-----|
G|--2======================-|--------------------------|
D|--0==========-0==========-|--0==========-0==========-|
A|--------------------------|--------------------------|
E|--------------------------|--------------------------|
 |  |  |  |  |  |  |  |  |  |  |  |  |  |  |  |  |  |  |  
R   a  a  m  i  m  i  m  i     a     a     a     a
    i           p              m     m     m     m
    p                          p     p     p     p

L   1     4  1  4     1  4     4     4     4     4
    2                          1     1     1     1

[13]
E|--1--0--1--3--1--0--3--1--|--0==========-0--3--1--0--|
B|--------------------------|--------------------------|
G|--2==========-2==========-|--0-----0--2--0==========-|
D|--0==========-0==========-|-----4--------------------|
A|--------------------------|--3==========-3==========-|
E|--------------------------|--------------------------|
 |  |  |  |  |  |  |  |  |  |  |  |  |  |  |  |  |  |  |  
R   a  m  a  m  a  m  a  m     a  i  m  i  a  m  a  m  
    i           i              m           m
    p           p              p           p

L   1     1  4  1     4  1     3  4     2  3  4  1
    2           2

[15]
E|--1-----0-----------------|--------------------------|
B|-----------3--2-----3--2--|--3-----3--2--3-----3-----|
G|--2======================-|-----2--------2-----2-----|
D|--0===========------------|--0==========-0==========-|
A|--------------0==========-|--------------------------|
E|--------------------------|--------------------------|
 |  |  |  |  |  |  |  |  |  |  |  |  |  |  |  |  |  |  |  
R   a     m  i  m     m  i     m  i  m  i  m     m
    i                          p           i     i
    p           p                          p     p

L   1        4  3     4  3     4  2  4  3  4     4
    2                                      2     2

    
[17]I.............
E|--1-----1=======----------|--0==========-0--3--1--0--|
B|--1-----1=======----------|--------------------------|
G|--2-----2=======----------|--0-----0--2--0==========-|
D|--------------------------|-----4--------------------|
A|--------------------0--2--|--3==========-3==========-|
E|--1-----1-----1--3--------|--------------------------|
 |  |  |  |  |  |  |  |  |  |  |  |  |  |  |  |  |  |  |  
R   a     a     p  p  p  p     a  i  m  i  a  a  m  i
    m     m                    i           i
    i     i                    p           p
    p     p

L   1     1     1  4     2     3  4     2  3  4  1   
    1     1
    2     2

[19]
E|--1--0--------------------|--0==========-0-----0-----|
B|--------3--1===--3--2--0--|--2--0--2--3--2-----2-----|
G|--2======================-|--------------------------|
D|--0===========------------|--------------------------|
A|--------------0==========-|--0==========-0==========-|
E|--------------------------|--------------------------|
 |  |  |  |  |  |  |  |  |  |  |  |  |  |  |  |  |  |  |  
R   a  a  m  i  p  a  m  i     a  i  m  i  a     a
    i                          m           m     m
    p                          p           p

L   1     4  1     4  3        2     2  4  2     2
    2

[21]I.............
E|--1-----1=======----------|--0==========-0--3--1--0--|
B|--1-----1=======----------|--------------------------|
G|--2-----2=======----------|--0-----0--2--0==========-|
D|--------------------------|-----4--------------------|
A|--------------------0--2--|--3==========-3==========-|
E|--1-----1-----1--3--------|--------------------------|
 |  |  |  |  |  |  |  |  |  |  |  |  |  |  |  |  |  |  |  
R   a     a     p  p  p  p     a  i  m  i  a  a  m  i
    m     m                    i           i
    i     i                    p           p
    p     p

L   1     1     1  4     2     3  4     2  3  4  1   
    1     1
    2     2


[23]
E|--1-----0-----------------|--------------------------|
B|-----------3--2-----3--2--|--3-----3--2--3-----3-----|
G|--2======================-|-----2--------2-----2-----|
D|--0===========------------|--0==========-0==========-|
A|--------------0==========-|--------------------------|
E|--------------------------|--------------------------|
 |  |  |  |  |  |  |  |  |  |  |  |  |  |  |  |  |  |  |  
R   a     m  i  m     m  i     m  i  m  i  m     m
    i           p              p           i     i
    p                                      p     

L   1        4  3     4  3     4  2  4  3  4     4
                                           2     2


Hans Neusidler was one of the leading figures in the development of 16th 
century German lute music. He achieved considerable success not only as 
a performer and composer, but also as a lute maker and teacher. His sons, 
Melchior and Conrad (he had thirteen children althogether), were also 
prominent lutenists and composers in their own right.

Between 1536 and 1549 Neusidler published eight books of lute music, the 
first of which contains an important introduction on playing the lute.

source: Renasissance for guitar by Howard Wallace. Alfred Publisher

www.chrisliang.com

======
Legend
======
Right
p = pulgar = thumb
i = indice = index
m = medio = middle
a = anular = ring

Left
p = pull off
h = hammer on
/ = slide
= = suspend/hold Note
II = Barre at fret 2 
Tap to rate this tab
 
# A B C D E F G H I J K L M N O P Q R S T U V W X Y Z