Song name
# A B C D E F G H I J K L M N O P Q R S T U V W X Y Z

Hans Zimmer - The Last Mohican tab

|---------------------------------------------------------------------|
|-----6-5---5---------------6-5---5-----------------------------------|
|---------7---7-5-5-------------7---7-5-5-----------------------------|
|-7-7-------------------7-7-------------------------------------------|
|---------------------------------------------------------------------|
|---------------------------------------------------------------------|



|---------------------------------------------------------------------|
|-5-5-8-5-5-5-5---5-5-5-8-5-5-5---------------6-5---------------------|
|---------------7---------------7-5-7-7-7-5-7-----7-5-7-7-7-7-7-5-7---|
|---------------------------------------------------------------------|
|---------------------------------------------------------------------|
|---------------------------------------------------------------------|


|---------------------------------------------------------------------|
|-6-5--------6-6-8-6-6-6-5---5-5-5---5-8-5-5-5---------------6-5------|
|-----7-5------------------7-------7-----------7-5-7-7-7-5-7-----7-5--|
|---------------------------------------------------------------------|
|---------------------------------------------------------------------|
|---------------------------------------------------------------------|

|---------------------------------------------------------------------|
|---------------------------------------------------------------------|
|-7-7-7---------------------------------------------------------------|
|---------------------------------------------------------------------|
|---------------------------------------------------------------------|
|---------------------------------------------------------------------|
Tap to rate this tab
 
# A B C D E F G H I J K L M N O P Q R S T U V W X Y Z