Song name
# A B C D E F G H I J K L M N O P Q R S T U V W X Y Z

Hans Zimmer - We Will Go Home tab

Help us improve GuitareTab! Take a short survey!
Song: We Will Go Home
Composer: Hans Zimmer
Soundtrack: King Arthur
Sung By: Venora

Verse:
e|----------------------------------------------------| 
B|----------------------------------------------------|
G|------7----------------------7--7-5-----------------|
D|-5--8----8-3--7--7-5---5--8----------3-7-5----------| 
A|----------------------------------------------------|
E|----------------------------------------------------|

e|----------------------------------------------------| 
B|----------------------------------------------------|
G|--------7-----------------------7--7-\5-------------|
D|-5--7h8---8-3--7--7-5---5--7-8-----------3-7--5-----| 
A|----------------------------------------------------|
E|----------------------------------------------------|

Refrain:
e|----------------------------------------------------------------------| 
B|----------------------------------------------------------------------|
G|-10-9-10--/12------5-7-9--9-/7------10-9-10--/12----12-/9-----9--7----|
D|-----------------------------------------------------------10---------| 
A|----------------------------------------------------------------------|
E|----------------------------------------------------------------------|

e|----------------------------------------------------------------------| 
B|----------------------------------------------------------------------|
G|-10-9-10--/12------5-7-9--9-/7------10-9-10--/12----12-/9-----9--7----|
D|-----------------------------------------------------------10---------| 
A|----------------------------------------------------------------------|
E|----------------------------------------------------------------------|

Bridge:
e|---------------------------------------------------------| 
B|---------------------------------------------------------|
G|-------------------------------------7--7-\5-------------|
D|-5--8--12-/5----3--7--5-5----5--7-8-----------3-7--5-----| 
A|---------------------------------------------------------|
E|---------------------------------------------------------|

Final Refrain:
e|----------------------------------------------------------------------| 
B|----------------------------------------------------------------------|
G|-10-9-10--/12------5-7-9--9-/7------10-9-10--/12----12-/9-----9--7----|
D|-----------------------------------------------------------10---------| 
A|----------------------------------------------------------------------|
E|----------------------------------------------------------------------|

Land of bear and
Land of eagle
Land that gave us birth and blessing
Land that pulled us ever homewards
We will go home across the mountains

We will go home, we will go home
We will go home, across the mountains
We will go home, we will go home
We will go home, singing our song

Hear our singing,
Hear our longing
We will go home across the mountains

We will go home, we will go home
We will go home, across the mountains
Related for We Will Go Home tab