Song name
# A B C D E F G H I J K L M N O P Q R S T U V W X Y Z

Hans Zimmer - Time tab

-------------------------------------------------------------------------------
			     Time [from the movie "Inception"] - Hans Zimmer
-------------------------------------------------------------------------------
Tabbed by: Nicolai
Email: nicolai.f@live.de
Tuning: Standard
Key: G-Major

I was fascinated by the Inception soundtrack by Hans Zimmer and started to play along. 
way I figured out the chords and the key to improvise.
This is my first tab so please let me know if there's something wrong. Thank You!


The whole piece is just these four chords:
Am - Em [barré on 7th fret] - G - D

e|---0------7------3------2------------------------------------------------|
B|---1------8------3------3------------------------------------------------|
G|---2------9------0------2------------------------------------------------|
D|---2------9------0------0------------------------------------------------|
A|---0------7------2------X------------------------------------------------|
E|---X------X------3------X------------------------------------------------|
     Am     Em     G      D

The guitar part starting at 2:00 is played like this:

e|---[8X]--5-h-7--7------[4X]--3-h-5--5------------------------------------|
B|------------------------------------------[4X]--5-h-7--7-----------------|
G|-------------------------------------------------------------------------|


The song is in G-Major so you can improvise along while listening to it.

************************************

| /   slide up
| \   slide down
| h   hammer-on
| p   pull-off
| ~   vibrato
| +   harmonic
| x   Mute note
| b   Bend
| pb  Pre-bend
| br  Bend release
| pbr Pre-bend release
| brb Bend release bend

************************************
Tap to rate this tab
 
# A B C D E F G H I J K L M N O P Q R S T U V W X Y Z