Song name
# A B C D E F G H I J K L M N O P Q R S T U V W X Y Z

Hans Zimmer - Maximus tab

Help us improve GuitareTab! Take a short survey!
#-----------------------------------------------------------------------------#
#-- File created with Instab - http://www.pconline.com/~smcarey/instab.html --#
#-----------------------------------------------------------------------------#

Author/Artist: Hans Zimmer/Heitor Pereira
Title: Maximus - More Music from Gladiator 
Transcribed by: Jan Nosek
Email: nosekjan@volny.cz

This little piece is very melancholic, so play it slowly. Try to arppegiate all
the chords then it sounds better. Be very careful where you play loudly and where
silently it is very important in this song.

Tuning: E to D

e-------------5--10--13---3--1--0----3--5-<17>-1--0-----------1--3--1--0-------
h------------6------------3-----1--------------3-----3-----3-----3-----1-------
g-----------7-------------3--------0-----------2-----3--2--------3-------0-0---
D-0----0------------------5-----2--------------0-----5-----------5-----2-------
A-0----0------------------5-----3--------------0-----5-----------5-----3-------
D-0----0---------------------------------------------0-------------------------
                                                                              

e-0----------------------------------------------------------------------------
h---3-1----3----3-----3-----3----3---3------------1-----------1-------------3--
g----------2--2-------2-----2----2---3--3-3-------0---0-0-----0-------------2--
D----------0--------------0-----3----5------------2-----------2-------------0--
A----------0--------0-----------------------------3-----------3-------------0--
D------------------------------------5---------3--0---------3-0---2---0-----0--
Related for Maximus tab