Song name
# A B C D E F G H I J K L M N O P Q R S T U V W X Y Z

Hans Zimmer - Davy Jones Theme tab

e|------------------------------------------------------------------------------|
B|----------------1-----------------1--3------------------1---------------------|
G|----------0--2--0--3--2--0--2--3--0--0--3--2--0--2---3--0--2-----0--3--2------|
D|-0--2--3--0--0-----0--0--0--0--0--------0--0--0--0---0-----0--3--0--0--0--3---|
A|-0--0--0------------------------------------------------------0-----------0---|
E|------------------------------------------------------------------------------|

e|------------------------------------------------------------------------------|
B|------------------------------------------------------------------------------|
G|------------------------------------------------------------------------------|
D|-0--2--------2--0--2--3--2--0-------------------------------------------------|
A|-0--0--3--0--0--0--0--0--0--0-------------------------------------------------|
E|-------0--0-------------------------------------------------------------------|
Tap to rate this tab
 
# A B C D E F G H I J K L M N O P Q R S T U V W X Y Z