Song name
# A B C D E F G H I J K L M N O P Q R S T U V W X Y Z

Hans Zimmer - Knights March tab

-----------------------------------------------------------------------------
                             Knight's March (King Arthur OST) - Hans Zimmer
-----------------------------------------------------------------------------
Tabbed by: Kotonaruwind
E-mail: abandonedstrings@gmail.com

Tuning: standard

 (00:09 - 00:32)
e|---------------------------------------------------------------------------|
B|---------------------------------------------------------------------------|
G|---------------------------------------------------------------------------|
D|--7--7--5--7--7--5--10--5--7----7--7--5--7--7--5--3--2---------------------|
A|--------------------------------------------------------5------------------|
E|---------------------------------------------------------------------------|

 (00:33 - 00:59)
e|---------------------------------------------------------------------------|
B|---------------------------------------------------------------------------|
G|-------------------------------------5--7----------------------------------|
D|-----7--5--7-----3--2--2----------7--------5--3--2-------------------------|
A|--5-----------3-----------5----5--------------------5----------------------|
E|---------------------------------------------------------------------------|

(01:00 - end)
e|---------------------------------------------------------------------------|
B|---------------------------------------------------------------------------|
G|----------------------------------7--5--7--7--7--5--7----------------------|
D|-----7--5--7-----3--2--2-------------------------------7---5--3------------|
A|--5-----------3-----------5----5-------------------------------------------|
E|---------------------------------------------------------------------------|

e|---------------------------------------------------------------------------|
B|---------------------------------------------------------------------------|
G|-----7--5--7--7--7--5----------7--5--7--7--7--9--10--10--9--7--------------|
D|-----------------------7---------------------------------------------------|
A|--5-------------------------5----------------------------------------------|
E|---------------------------------------------------------------------------|

e|---------------------------------------------------------------------------|
B|---------------------------------------------------------------------------|
G|-----------------7---------------------------------------------------------|
D|--------2--3--7--------2--3--5--7--2---------------------------------------|
A|--5--5--------------5-----------------5------------------------------------|
E|---------------------------------------------------------------------------|

It's my first tab here, if you have any corrections or improvements you can email me at 
abandonedstrings@gmail.com or write here.
Tap to rate this tab
# A B C D E F G H I J K L M N O P Q R S T U V W X Y Z