Song name
# A B C D E F G H I J K L M N O P Q R S T U V W X Y Z

Hans Zimmer - Pirates Of The Caribbean Theme tab

Here are some other parts from the "Pirates of the Caribbean" theme. I couldn't 
find tabs for these anywhere myself, so I made this. Enjoy!



|       Play three times      |
Play 3 times                     OPTIONAL This part is best to be played with DADGBE tuning, and it
                                                                                     goes like this
|------------|----------------||-------------|-----------------------------------------------------|
|------------|---------------o||-------------|-----------------------------------------------------|
|------------|----------------||-------------|-----------------------------------------------------|
|--0--0h1-0h1|-0--0h1-3p1-----||-0---0-1-0-1-|-0--0h1-3p1------------------------------------------|
|------------|----0--(0)-----o||-------------|-----------------------------------------------------|
|--3--3------|-3--------------||-0---0-------|-0--3------------------------------------------------|


 For the next line, raise the tempo on every chord until A7sus4

  A5               Asus4            Dm             A7sus4 A * Adim  A   Adim  A   Dm 
|-----------------------------------1~~~~1-1-1-1-1-1--------------------------0----1-----------|
|------------------3~~~~3-3-3-3-3-3-3~~~~3-3-3-3-3-3-3----2----2----2----2----2----3-----------|
|-2~~~~2-2-2-2-2-2-2~~~~2-2-2-2-2-2-2~~~~2-2-2-2-2-2-2----2----3----2----3----2----2-----------|
|-0~~~~0-0-0-0-0-0-2~~~~2-2-2-2-2-2-0~~~~0-0-0-0-0-0-2----2----2----2----2----2----0-----------|
|----------------------------------------------------0----0----1----0----1----0----------------|
|----------------------------------------------------------------------------------------------|
 * I like to keep a one measure pause here and start climbing up the tempo again.
                                                                           Dm
|--------------------------------------------------------------------------------1-------------|
|-----------------------------------------------------------------------------3--3-------------|
|----------------------------------------0--0-2-3--------------------------2--2--2-------------|
|--0-2-3-0-2--0-----0--0--2-3-0-2--3--5--0--------0-3~~2~~0~~2~~0~~---0~~--0--0--0-------------|
|----------------3--0-----------3--3--3-------------------0~~------3~~-----0--0--0-------------|
|----------------0-------------------------------------------3~~---3~~1~~----------------------|


|--------0-1---0-------------0-1---0--1--3~~3~~3-5-6-3------------------(1)------5~~----------|
|---3--3-----3----3--1--3--3-----3----1--1-------------------------------3~/6~(6)6~~----------|
|-----------------0--0----------------0--0--0----------10~9~~7~~9~~7~~5~~2~/5----5------------|
|---0--0----------0--0--0--0---------------------------10~9~~7~~9~~7~~5~~0(/3)--(7)-----------|
|-----------------------------------------------(0)----8~~7~~5~~7~~5~~3~~-------(8)-----------|
|---------------------------------------------------------------------------------------------|

   Dm   A#    F          C    Gm         Dm          A Dm  A  D5 Dm        Dm   A#   F          C
|---1~~~~1~~~~----------(0)---------------1~~------1-0--1--0--------------|5~~~~6~~~~5--5--5--5-3---|
|---3~~~~3~~~(1)(1)(1)(1)1~~~~3~~-------3-3~~----3---2--3--2--3~~--------6|6~~~~6~~~~6--6--6--6-5---|
|---2~~~~3~~~~2--2--2--2-0~~~~3~~-----3---2~~--2-----2--2--2--2~~------7--|7~~~~7~~~~5--5--5--5-5---|
|---0~~~~3~~~~3--3--3--3-2~~~~5~~---5-----0~~0------(2)(0)(2)-0~~----7----|7~~~~8~~~(3)(3)(3)(3)5---|
|--------1~~~~3--3--3--3-3~~~~5~~----------------------------------5------|5~~~~8~~~~----------(3)--|
|-------------1--1--1--1------3~~-3------------------------------5--------|----(6)------------------|
              d  d  d  d u/d (= both are fine)                            
                                                  D
|-------------------------------------------------2~~----------|
|-------------------------------------------------3~~2/3/4/5---|
|-------------------------------------------------2~~----------|
|---------------------0-0---------0-0-4-4-5-5-6-6-0~~----------|
|-----0-0-0-0-5-5-7-7-8-8-5-5-7-7-8-8-0-0-0-0-0-0--------------|
|-5-5-7-7-9-9-5-5-5-5-5-5-5-5-5-5-5-5--------------------------|


   Dm  G5   C  F5 E5     G5   F   C    F5  G5     G5 F5  A Dm  A          Dm (prefer D5)
|--5~~~~----8~~~--------------8~~~8~~~~~----------------------------------5~~---------|
|--6~~~~8-8-8~~~--------------10~~8~~~~~------10~~-------5--6--5----------6~~---------|
|--7~~~~0-7-9~~~10-9--10--12--10~~9~~~~~10-12-10~~12-10--6--7--6--7--9p6--7~~---------|
|--7~~~(5)5-10~~10-9--7---12--10~~10~~~~10-12-7~~~12-10--7--7--7--0-------7~~---------|
|--5~~~~----10~~8--7--8---10--8~~~10~~~~8--10-----10-8---7--5--7--8--7(7)-5~~---------|
|--5~~~~----8~~~--------------8~~~8~~~~~----------------(5)---(5)---------------------|

The Cheery Part:

                                     1. & 3.   2. & 4.
|-----------------------------------|--------|---------------------------------------------------||
|-----0-1--1-0-3-----1-0----1--1-0--|--------|--------------------------------------------------o||
|---2-------------2------0---------0|--2-----|----2----2-----------------------------------------||x4
|-----------------------------------|----3-0-|--0----0-------------------------------------------||
|-----------------------------------|--------|--------------------------------------------------o||
|-----------------------------------|--------|---------------------------------------------------||


|-----------------------------------|
|-----0-1--1-0-3-----1-0----1--1-0--|
|---2-------------2------0---------0|
|-----------------------------------|
|-----------------------------------|
|-----------------------------------|

|-----------------------------------|---------|-----------|--------------------------------------||
|-----------------------------------|---------|-----------|-------------------------------------o||
|--------------4--------------------|---------|-----------|--------------------------------------||
|---4-6-7--7-6----4--7-6----7--7-6--|--4--0---|----4----4-|--------------------------------------||
|------------------------7---------7|-------2-|--2----2---|-------------------------------------o||
|-----------------------------------|---------|-----------|--------------------------------------||

|---------------7----------------------|--------|------------------------------------------------|
|---7-9-10-10-9----7--10-9---10--10-9--|--7-----|------------------------------------------------|
|--------------------------9----------9|-----7--|------------------------------------------------|
|--------------------------------------|-------9|------------------------------------------------|
|--------------------------------------|--------|------------------------------------------------|
|--------------------------------------|--------|------------------------------------------------|

After this, I like to follow up with the "main riff" for which you can find 
countless of good tabs already :)
Tap to rate this tab
# A B C D E F G H I J K L M N O P Q R S T U V W X Y Z