Song name
# A B C D E F G H I J K L M N O P Q R S T U V W X Y Z

Hans Zimmer - Face Off tab

Okay, this is the end theme of the movie: Face Off
Hans Zimmer has made a lots of music to movies!! Hes great!!
Its not all, but im trying to get all of it...so, here, try it you to:

Hans Zimmer - Face Off End Theme

---6---9---6---9---6---2---6---2---4---2---2-------2---2-------|
-----------------------------------------------4---------------|
---------------------------------------------------------------|
---------------------------------------------------------------|
---------------------------------------------------------------|
---------------------------------------------------------------|


-----------------------------------------------------------------|
---4---4---2-----------------------------------------------------|
-----------------------6-----------------------------------------|
---------------4---6---------------------------------------------|
-----------------------------------------------------------------|
-----------------------------------------------------------------|

thats as far as I am now, but maybe Ill find out more later!! Ill try!!

Thomas, Norway
Tap to rate this tab
# A B C D E F G H I J K L M N O P Q R S T U V W X Y Z