Song name
# A B C D E F G H I J K L M N O P Q R S T U V W X Y Z

Hanson - Great Divide tab

----------------------------------------------------------------------------|
----------------------------------------------------------------------------|
----------------------------------------------------------------------------|
----------------------------------------------------------------------------|
-----------------------2------------------------------------2---------------|
-2-3-3--3--3-3-2-3-3-3---3-2-3-3-3-3-3---2-3-3-3-3-3-2-3-3-3--3-2-3-3-------|


-----------------|
-----------------|
-----------------|
-----------------|
--4--2--2-1------|
-------------4---|


-enjoy
Ash
Tap to rate this tab
# A B C D E F G H I J K L M N O P Q R S T U V W X Y Z