Song name
# A B C D E F G H I J K L M N O P Q R S T U V W X Y Z

Hanson - Misery tab

Misery
Hanson - Underneath

Transposed by Matt Donley
Matt@Bizfound.com


Intro, verse
E---------3-------|
B-3---3---3---3---|
G-3---2---3---2---|
D-3---3---5---3---|
A-1---1---5---1---|
E---------3-------|

Pre-Chorus
E-----3-------3---1---|
B-7---3---7---3---1---|
G-7---3---7---3---2---|
D-7---5---7---5---3---|
A-5---5---5---5---3---|
E-----3-------3---1---|
	I can never promise that you'll never be lonely....

2nd Chorus
E---------3---------------3---1---|
B-3---3---3---3---8---3---4---1---|
G-3---2---3---2---8---3---5---2---|
D-3---3---5---3---8---3---5---3---|
A-1---1---5---1---6---1---3---3---|
E---------3-------------------1---|


Song goes...

Intro
Verse
Pre-chorus
Chorus (intro)
Verse
Pre-Chorus
2nd chorus
Pre-chorus
Intro
second part of 2nd chorus
intro (outrow)
Tap to rate this tab
# A B C D E F G H I J K L M N O P Q R S T U V W X Y Z