Song name
# A B C D E F G H I J K L M N O P Q R S T U V W X Y Z

Hanson - Mmmbop tab

Hanson
MmmBop

Capo 1/2 (Can be played with either capo 1 or capo 2)

This intro tab repeats at various points throughout the song.

     D          A          G          A
e|---2----------0----------3----------0-----------| ||
B|-----3----------2----------0----------2---------| ||
G|-2-----2----2-----2----0-----0----2-----2-------|||
D|------------------------------------------------|||
A|------------------------------------------------| ||
E|------------------------------------------------| ||


This little riff is the riff the distorted guitar plays. You can mess about with the 
pattern but the power chords are pretty much what he uses.
       D          A         G          A
e|--------------------------------------------| ||
B|--------------------------------------------| ||
G|-7---7---7-7--------------------------------|||
D|-7---7---7-7---7-7----5---5---5-5---7-7-----|||
A|-5---5---5-5---7-7----5---5---5-5---7-7-----| ||
E|---------------5-5----3---3---3-3---5-5-----| ||

From there on the chord pattern is pretty much this:

D: (xx0232)
A: (x02220)
G: (320033)
A: (x02220)

With two beats per chord.

Happy playing :)
Tap to rate this tab
 
# A B C D E F G H I J K L M N O P Q R S T U V W X Y Z