Song name
# A B C D E F G H I J K L M N O P Q R S T U V W X Y Z

Hanzel Und Gretyl - Blut Zex Fire tab

-------------------------------------------------------------------------------
			     Hanzel und Gretyl - Blut! Zex! Fire!
-------------------------------------------------------------------------------
Tabbed by:decayingsinner
Email:decayingsinner@verizon.net

very simple song

Tuning:Drop C

Verse
D|-----------------------------------------------------------------------------------|
A|-----------------------------------------------------------------------------------|
F|-----------------------------------------------------------------------------------|
C|--xxxx--------------5--3-----------------------------------------------------------|
G|--xxxx-----x20------5--3-----------------------------------------------------------|
C|--xxxx--------------3--1-----------------------------------------------------------|

Chorus
D|-----------------------------------------------------------------------------------|
A|-----------------------------------------------------------------------------------|
F|-----------------------------------------------------------------------------------|
C|---2---5--7---5---3-2--------------------------------------------------------------|
G|---2---5--7---5---3-2--------------------------------------------------------------|
C|---0---3--5---3---1-0--------------------------------------------------------------|

| /  slide up
| \  slide down
| h  hammer-on
| p  pull-off
| ~  vibrato
| +  harmonic
| x  Mute note
===============================================================================
Tap to rate this tab
 
# A B C D E F G H I J K L M N O P Q R S T U V W X Y Z