Song name
# A B C D E F G H I J K L M N O P Q R S T U V W X Y Z

Hanzel Und Gretyl - Mein Kommandant tab

-------------------------------------------------------------------------------
			     MEIN KOMMANDANT - Hanzel und Gretyl
-------------------------------------------------------------------------------
Tabbed by: decayingsinner
Email:decayingsinner@verizon.net

Tuning:Standard

Intro
e|-----------------------------------------------------------------------------|
B|-----------------------------------------------------------------------------|
G|---10-9---6-5---10-9---6-5---10-9---6-5-------- -----------------------------|
D|-----------------------------------------------------------------------------|
A|-----------------------------------------------------------------------------|
E|-----------------------------------------------------------------------------|

e|--------------------------------------------------|
B|--------------------------------------------------|
G|--10-9---------3--5h6p5-5-5-5-----3--5h6p5-5-5-5--|
D|--------------------------------------------------|
A|--------------------------------------------------|
E|--------------------------------------------------|

e|------------------------------------|
B|------------------------------------|
G|-3--5h6p5-5-5-5-----3--5h6p5-5-5-5--|
D|------------------------------------|
A|------------------------------------|
E|------------------------------------|

    2 times
e|---------------------------------------|
B|---------------------------------------|
G|-8-8-7--7-10-10-9---3--5-5-5--3-6-6-5--|
D|---------------------------------------|
A|---------------------------------------|
E|---------------------------------------|
verse
pt. 1 of intro repeats prior to verse 2

vs. 2
e|---------------------------------------------------|
B|---------------------------------------------------|
G|------10-9---6--5-------15--17-17-17--15-18-18-17--|
D|---------------------------------------------------|
A|---------------------------------------------------|
E|---------------------------------------------------|



| /  slide up
| \  slide down
| h  hammer-on
| p  pull-off
| ~  vibrato
| +  harmonic
| x  Mute note
===============================================================================
Tap to rate this tab
# A B C D E F G H I J K L M N O P Q R S T U V W X Y Z