Song name
# A B C D E F G H I J K L M N O P Q R S T U V W X Y Z

Hanzel Und Gretyl - Fukken Uber Death Party tab

!!!NOTICE: I DID NOT TAB THIS, I GOT IT FROM fukkenuber.com 
AND NOTICED IT WAS NOT ON UG. IM NOT SURE IF IT WAS BB3K OR IBUA THAT 
TABBED THIS, SO I AM GIVING CREDIT TO BOTH!!!



Song: Fukken Uber Death Party
Artist: Hanzel Und Gretyl

Legend:
h = hammer-on
p = pull-off
b = bend to note
rb= release bend
/ = slide to fret
~ = vibrato
PM... = palm-muting of dotted sections
x = pick scrape

!!!Please note solo is my way of playing, the timings of the tabs might not be 
   correct but you can very easily follow the tab with the music and work it out !!!


Tuning: Drop C




Riff 1

D-----------------------------------------------------------------------|
A-----------------------------------------------------------------------|
F--5-7---8-7--5-7---8-7--10-10-10---5-7--8-10--5-7----------------------|
C--5-7---8-7--5-7---8-7--10-10-10---5-7--8-10--5-7---3-2-1-1------------|  x2
G--3-5---6-5--3-5---6-5--8--8--8----3-5--6-8---3-5---3-2-1-1------------|
C----------------------------------------------------3-2-1-1------------|


Riff 2


D-----------------------------------------------------------------------|
A-----------------------------------------------------------------------|
F-----------------------------------------------------------------------|
C--0000000000000101-0000000000000601--0000000000000101-00000000000------|  
G--0000000000000101-0000000000000601--0000000000000101-00000000000------|
C--0000000000000101-0000000000000601--0000000000000101-00000000000------|
pm ............. .  ............. .   ............. .  ...........

Riff 1

Riff 2



Riff 1



Riff 3

D-----------------------------------------------------------------------|
A-----------------------------------------------------------------------|
F-----------------------------------------------------------------------|
C--0-0-0-0-0----0-0-0-0-1---0-0-0-0-0----0-0-0-0-1----------------------|  x2
G--0-0-0-0-0----0-0-0-0-1---0-0-0-0-0----0-0-0-0-1----------------------|
C--0-0-0-0-0----0-0-0-0-1---0-0-0-0-0----0-0-0-0-1----------------------|
pm . . . . .    . . . .     . . . . .    . . . .


Riff 1

Riff 2

Riff 1

Riff 3

Riff 4




Solo (with riff 1 underneath x2)

D--16b17-17-17-17-17-17-17-17-17-17-17rb16-16-16-16-16-16---------------|
A-----------------------------------------------------------19~/---------|
F-----------------------------------------------------------------------|
C-----------------------------------------------------------------------|
G-----------------------------------------------------------------------|
C-----------------------------------------------------------------------|
       (Gradual Unbending)


D-----------------------------------------------------------------------|
A-----------------------------------------------------------------------|
F-----------------------------------------------------------------------|
C---/18b19----19---19--19-19-19~--------17--17--17--17------------------|
G--------------------------------------------------------20-------------|
C-----------------------------------------------------------------------|

D-----------------------------------------------------------------------|
A---------------------------------21b23--23---23---23------19-----------|
F-----/19~--------------------------------------------------------------|
C-----------------------------------------------------------------------|
G-----------------------------------------------------------------------|
C-----------------------------------------------------------------------|


D-----------------------------------------------------------------------|
A---------------------------------------------------19------------------|
F-----------------------------------------------------------------------|
C----19-19-19-19-19-19-19-19---19---------------------------------------|
G---------------------------------20------------------------------------|
C-----------------------------------------------------------------------|
     (slight bending on 19th)                   




Riff 5

D-----------------------------------------------------------------------|
A-----------------------------------------------------------------------|
F---------------------5-7--8-10--5-7------------------------------------|
C--0000000000000101---5-7--8-10--5-7---3-2-1-1--------------------------|  x4
G--0000000000000101---3-5--6-8---3-5---3-2-1-1--------------------------|
C--0000000000000101--------------------3-2-1-1--------------------------|
pm ............. . 



Riff 3


END
Tap to rate this tab
# A B C D E F G H I J K L M N O P Q R S T U V W X Y Z