Song name
# A B C D E F G H I J K L M N O P Q R S T U V W X Y Z

Hanzel Und Gretyl - Heil Hizzle Mein Nizzle tab

Note: Not made by me, just sharing

Song: Heil Hizzle Mein Nizzle
Artist: Hanzel und Gretyl

Legend:
h = hammer-on
p = pull-off
b = bend to note
rb= release bend
/ = slide to fret
~ = vibrato
PM... = palm-muting of dotted sections
x = pick scrape




Tuning: I think it's Drop C





Riff 1:

D-----------------------------------------------------------------------|
A-----------------------------------------------------------------------|
F-----------------------------------------------------------------------|
C--0-0-0-0-0-0-0-0-0-0-0-0-0-0-0-0-1-0-0-0-0-0-0-0-0-1------------------|
G--0-0-0-0-0-0-0-0-0-0-0-0-0-0-0-0-1-0-0-0-0-0-0-0-0-1------------------|
C--0-0-0-0-0-0-0-0-0-0-0-0-0-0-0-0-1-0-0-0-0-0-0-0-0-1------------------|




D-----------------------------------------------------------------------|
A-----------------------------------------------------------------------|
F-----------------------------------------------------------------------|
C--0-0-0-0-0-0-0-0-3-0-0-0-0-4-0-3-0-1----------------------------------|
G--0-0-0-0-0-0-0-0-3-0-0-0-0-4-0-3-0-1----------------------------------|
C--0-0-0-0-0-0-0-0-3-0-0-0-0-4-0-3-0-1----------------------------------|



Riff 2


D-----------------------------------------------------------------------|
A-----------------------------------------------------------------------|
F-------------------------------------8---7---5-------------------------|
C-------------------------------------8---7---5-------------------------|
G--0-0-0-0-0-0-0-0-0-0-0-0-0-0-0-0----6---5---3-------------------------|
C--0-0-0-0-0-0-0-0-0-0-0-0-0-0-0-0--------------------------------------|
                                                                             X2
D-----------------------------------------------------------------------|
A-----------------------------------------------------------------------|
F-------------------------------------5---5---8-------------------------|
C-------------------------------------5---5---8-------------------------|
G--0-0-0-0-0-0-0-0-0-0-0-0-0-0-0-0----3---3---6-------------------------|
C--0-0-0-0-0-0-0-0-0-0-0-0-0-0-0-0--------------------------------------|
Tap to rate this tab
 
# A B C D E F G H I J K L M N O P Q R S T U V W X Y Z