Hanzel Und Gretyl - Number 1 In Deutschland tab

Note: Not made by me, just sharing

Hanzel und Gretyl - No. 1 in Deutschland

-------------------------------------------------------------------------------
Tabbed by:decayingsinner
Email:decayingsinner@verizon.net

Tuning:Drop C

Intro:

D|---------------------------------------------------------------------------|
A|---------------------------------------------------------------------------|
F|---------------------------------------------------------------------------|
C|---------------------------------------------------------------------------|
G|---14-14--15--15-15-15-16-16-16-16-----------------------------------------|
C|---12-12--13--13-13-13-14-14-14-14-----------------------------------------|


D|---------------------------------------------------------------------------|
A|---------------------------------------------------------------------------|
F|---------------------------------------------------------------------------|
C|---------------------------------------------------------------------------|
G|--14---3---5-5-5---------14-15-15-15-15-15---------------------------------|
C|--12---1---3-3-3----x3---12-13-13-13-13-13-------4th-time------------------|

Chorus... "And I 'aint gonna stop til I'm No. 1 in Deustchland"

D|---------------------------------------------------------------------------|
A|---------------------------------------------------------------------------|
F|---------------------------------------------------------------------------|
C|---------------------------------------------------------------------------|
G|--5--4--3-14-14-14-14-14-14-14-14-14-14-14-14-14-14-14-14------------------|
C|--3--2--1-12-12-12-12-12-12-12-12-12-12-12-12-12-12-12-12------------------|


D|---------------------------------------------------------------------------|
A|---------------------------------------------------------------------------|
F|---------------------------------------------------------------------------|
C|---------------------------------------------------------------------------|
G|---14-14-14-14-15-15-15-15-17-17-17-17-------------------------------------|
C|---12-12-12-12-13-13-13-13-15-15-15-15-------------------------------------|

Bridge

D|---------------------------------------------------------------------------|
A|---------------------------------------------------------------------------|
F|---------------------------------------------------------------------------|
C|---------------------------------------------------------------------------|
G|---14-14-14-15-15-15-15--17-17-17-17------14-14-14-15-15-15-15-12-12-12-12-|
C|---12-12-12-13-13-13-13--15-15-15-15------12-12-12-13-13-13-13-10-10-10-10-|
Tap to rate this tab
 
# A B C D E F G H I J K L M N O P Q R S T U V W X Y Z