Song name
# A B C D E F G H I J K L M N O P Q R S T U V W X Y Z

Hanzel Und Gretyl - Der Furor tab

-----------------------------------------------------------------------------
                "DER FUROR" - Hanzel und Gretyl
-----------------------------------------------------------------------------
Tabbed by:Decayingsinner
E-mail:joeghartman@verizon.net

Tuning: DROP C


There are four parts to this and they just repeat.



D|---------------------------------------------------------------------------|
A|---------------------------------------------------------------------------|
F|---------------------------------------------------------------------------|
C|---------------------------------------------------------------------------|
G|--6\5--6\5--6\5--3/5---6/8888-7777-------6\5--6\5--6\5--3/5---6/8888--7----|
C|---------------------------------------------------------------------------|


D|----------------------------------------------------------------------------|
A|----------------------------------------------------------------------------|
F|----------------------------------------------------------------------------|
C|----------------------------------------------------------------------------|
G|-0--1111---3333--5555---x3-|--8888-7777--10-10-10-10--99--------------------|
C|-0--1111---3333--5555---x3-|--8888-7777--10-10-10-10--99--------------------|

D|---------------------------------------------------------------------------|
A|---------------------------------------------------------------------------|
F|---------------------------------------------------------------------------|
C|---------------------------------------------------------------------------|
G|-1-00--1-00--1-00--1-00----------------------------------------------------|
C|-1-00--1-00--1-00--1-00----------------------------------------------------|

not 100% sure on this part.
D|----------------------------------------------------------------------------|
A|----------------------------------------------------------------------------|
F|----------------------------------------------------------------------------|
C|----------------------------------------------------------------------------|
G|--------6\5-----------------------------------------------------------------|
C|-000----------1\0-0--333--555-----------------------------------------------|
************************************

| /   slide up
| \   slide down
| h   hammer-on
| p   pull-off
| ~   vibrato
| +   harmonic
| x   Mute note
| b   Bend
| pb  Pre-bend
| br  Bend release
| pbr Pre-bend release
| brb Bend release bend

************************************
Tap to rate this tab
# A B C D E F G H I J K L M N O P Q R S T U V W X Y Z