Song name
# A B C D E F G H I J K L M N O P Q R S T U V W X Y Z

Hanzel Und Gretyl - Born To Be Heiled tab

BORN TO BE HEILED – HANZEL UND GRETYL
DROP C

Intro / Chorus:
D|-------------------------------------------------------------------------|
A|-------------------------------------------------------------------------|
F--------------------------------------------------------------------------|
C|--3-2-x--6-5-x--8-7-----3-2-x--6-5-x--7-6--------------------------------|
G|--3-2-x--6-5-x--8-7-----3-2-x--6-5-x--7-6--------x2----------------------|
C|--3-2-x--6-5-x--8-7-----3-2-x--6-5-x--7-6--------------------------------|


Verse:
D|---------------------------------------------------------------------------|
A|---------------------------------------------------------------------------|
F|---------------------------------------------------------------------------|
C|-22--2222---2222---22----1----------------22--2222---2222---22---0---1-----|
G|-22--2222---2222---22----1----(3 times)---22--2222---2222---22---0---1-----|
C|-22--2222---2222---22----1----------------22--2222---2222---22---0---1-----|
   **  ****   ****   **                     **  ****   ****   **
Bridge:
D|---------------------------------------------------------------------------|
A|---------------------------------------------------------------------------|
F|---------------------------------------------------------------------------|
C|--------2----------5----------2---------6----------------------------------|
G|-----2-----------5---5------2---------6---6--------------------------------|
C|--2---------6--5----------2------7--6--------------------------------------|
     "Tot!!!!"

Chorus
Verse
Bridge

Verse (without words)


D|---------------------------------------------------------------------------|
A|---------------------------------------------------------------------------|
F|------9------------12------------------------------------------------------|
C|----9-----------12----12---------------------------------------------------|
G|--7------11--10------------------------------------------------------------|
C|---------------------------------------------------------------------------|
  “Boots to the floor, hands up in the air”

Chorus
Tap to rate this tab
# A B C D E F G H I J K L M N O P Q R S T U V W X Y Z