Song name
# A B C D E F G H I J K L M N O P Q R S T U V W X Y Z

Hanzel Und Gretyl - Unterstutzung 87 tab

-----------------------------------------------------------------------------
                             UNTERSTUTZUNG 87  Hanzel und Gretyl
-----------------------------------------------------------------------------
Tabbed by:decayingsinner
E-mail:joeghartman@verizon.net

Tuning: Drop C
Intro/ Verse:
D|----------------------------------------------------------------------------|
A|----------------------------------------------------------------------------|
F|----7-------------8--7--7---------10--7--7--------5/7--777----8/10--10--10--|
C|----7----------8--7--7------------10--5--5--------5/7--777----8/10--10--10--|
G|----5-xxxx-----6--5--5-xxxx-------8---5--5--------3/5--555----6/8 - 8 -  8--|
C|---xxxx----------------xxxx-------------------------------------------------|
Chorus:
D|---------------------------------------------------------------------------|
A|---------------------------------------------------------------------------|
F|---------------------------------------------------------------------------|
C|----3----------------------------------------------------------------------|
G|----3-------------------6-7--6-----6--7--6---------------------------------|
C|----3----------------------------------------------------------------------|
Bridge:
D|---------------------------------------------------------------------------|
A|---------------------------------------------------------------------------|
F|---------------------------------------------------------------------------|
C|---------------------------------------------------------------------------|
G|-----6/7\6-----8\5-5----6/7\6---8\5--5-------------------------------------|
C|---------------------------------------------------------------------------|
Verse
Chorus
Solo(this is the best I could come up with):
D|-------------------|
A|-------------------|
F|-------------------|
C|-------------------|
G|-----6-7-7--6-7-7--| (repeats a lot)
C|-----6-7-7--6-7-7--|

D|---------------------------------------------------------------------------|
A|---------------------------------------------------------------------------|
F|-----10--7--7--5--7--------------10--7--7--5--7---------10--7--7--5--7-----|
C|---------------------------------------------------------------------------|
G|---------------------------------------------------------------------------|
C|---------------------------------------------------------------------------|

D|----------------------------------------------------------------------------|
A|----------------------------------------------------------------------------|
F|---3/5-5555/7-----(X2)----- 7---5--3--5--7---10--7------5---3--5--7--10----|
C|----------------------------------------------------------------------------|
G|----------------------------------------------------------------------------|
C|----------------------------------------------------------------------------|

D|---------------------------------------------------------------------------|
A|---------------------------------------------------------------------------|
F|--------5--3--5--7--10--7--10---3/5----10---7------------------------------|
C|---------------------------------------------------------------------------|
G|---------------------------------------------------------------------------|
C|---------------------------------------------------------------------------|

Chorus
Bridge


************************************

| /   slide up
| \   slide down
| h   hammer-on
| p   pull-off
| ~   vibrato
| +   harmonic
| x   Mute note
| b   Bend
| pb  Pre-bend
| br  Bend release
| pbr Pre-bend release
| brb Bend release bend
Tap to rate this tab
 
# A B C D E F G H I J K L M N O P Q R S T U V W X Y Z