Song name
# A B C D E F G H I J K L M N O P Q R S T U V W X Y Z

Hanzel Und Gretyl - Sternkrieg tab

Hello! I made a tab for the best song by Hanzel Und Gretyl, "Sternkrieg" It's not 
too difficult to play. I think its correct. Enjoy! Hencz Balázs.
If you familiar the song, you will know how many repeats.
 

Tuning: Drop C  

*=Palm Mute

Intro/Chorus Riff 0:28
D-------------------------------------|
A-------------------------------------|
F-------------------------------------|
C--10-12----13-12----10-12------------| 3x
G--10-12----13-12----10-12------------|
C--10-12000013-12000010-12000000000000|
        ****     ****     ************
4th time:
D-------------------------------------|
A-------------------------------------|
F-------------------------------------|
C--10-12----13-12----13-12------------|
G--10-12----13-12----13-12------------|
C--10-12000013-12000013-12000000000000|
        ****     ****     ************
Verse: 0:38
D-------------------------------------|
A-------------------------------------|
F-------------------------------------|
C-------------------------------------| 3x
G--0-0--0--0--0--0--0-1-0-1-3---------|
C--0-0--0--0--0--0--0-1-0-1-3---------|

4th time:
D-------------------------------------|
A-------------------------------------|
F-------------------------------------|
C---------------4--5--6--8------------|
G--0-0--0--0--0-3--5--6--8------------|
C--0-0--0--0--0-3--5--6--8------------|

0:50 Intro Riff
1:01 Chorus
D-------------------------------------------------|
A-------------------------------------------------|
F-------------------------------------------------|
C---6-----8------5--------------------------------|
G---6-----8------5--------------------------------|
C---6-----8------5---00000---00000---00000---00000|

1:08 Pre-Break (In Chorus 00000 is 4x, in Pre-Break 6x repeat
D-----------------------------------------------------------------|
A-----------------------------------------------------------------|
F-----------------------------------------------------------------|
C---6-----8------5------------------------------------------------|
G---6-----8------5------------------------------------------------|
C---6-----8------5---00000---00000---00000---00000---00000---00000|

1:15 Break (Only Vocal)
1:16 Verse Riff
1:28 Intro Riff
1:40 Chorus (NOT Pre-Break)

2nd chorus repeat: 1:46-2:13
D------------------------------|
A------------------------------|
F------------------------------|
C---6-----8------5-------------|
G---6-----8------5-------------|
C---6-----8------5-------------|

Pre-Interlude: 1:50
D-------------------------------------------|
A-------------------------------------------|
F-------------------------------------------|
C---10-12-----13-12-----10-12---------------|
G---10-12-----13-12-----10-12---------------|
C---10-12-0-0-13-12-0-0-10-12-0-0-0-0-0-0--- \
          * *       * *       * * * * * *     \
                                               Repeat 4x
D-------------------------------------------  / (After the 2th repeat, 
A------------------------------------------- /   there is a half second
F-------------------------------------------|     break.)
C---10-12-----13-12-----13-12---------------|
G---10-12-----13-12-----13-12---------------|
C---10-12-0-0-13-12-0-0-13-12-0-0-0-0-0-0---|
          * *       * *       * * * * * *
2:14 Intro Riff 
2:25 Chorus 2x
2:38 Break
3:02-3:38 Outro (Pre Interlude Riff many times...)    
Thank you! Bye!
Tap to rate this tab
 
# A B C D E F G H I J K L M N O P Q R S T U V W X Y Z