Song name
# A B C D E F G H I J K L M N O P Q R S T U V W X Y Z

Hanzel Und Gretyl - Komm Zu Unz tab

Komm Zu Uns

Tabbed by R. Hilliard
thegrimlife@yahoo.com

This is my first tab, so bare with it's shabby appearance.
If you are familiar with the song, then you know which parts repeat.


CGCFAD

D---------------------------------------|
A---------------------------------------|
F----7---7-------777------------------- |
C----7---7-------777--------6---6----666| 
G----5---5-------555--------6---6----666|
C---------------------------6---6----666|



KOMM ZU UNS!

D--------------------------------|
A--------------------------------|
F----7---------------------------|
C----7--6--7--6--3-------000--7-6|    chorus
G----5--6--7--6--3-------000--7-6|
C-------6--7--6--3-------000--7-6|

Fliegen Sie Stark! Fliegen Sie weiter!

D------------------------|
A------------------------|
F------------------------|
C----10--10--10-9-8-7----| 
G----10--10--10-9-8-7----|
C----10--10--10-9-8-7----|

Du bist der kosmiche warheit

D-------------------------|
A-------------------------|
F----5---5----------------|
C----5---3----2--2--2-----|
G----3---3----2--2--2-----|
C-------------2--2--2-----|

Notice^:  it goes from 553 to 533
Tap to rate this tab
 
# A B C D E F G H I J K L M N O P Q R S T U V W X Y Z