Song name
# A B C D E F G H I J K L M N O P Q R S T U V W X Y Z

Hanzel Und Gretyl - Third Reich From The Sun tab

Third Reich From the Sun Tab by Hanzel Und Gretyl, www.Ultimate-Guitar.Com


Third Reich From the Sun

Tabbed by R. Hilliard
thegrimlife@yahoo.com

My second tab...hope this is as understandable 
as my Komm Zu Uns Tab.  I'll try to use some 
other symbols I've seen other people use.  Again, 
everything should make sense if you're familiar
with the song.

/- slide up
\- slide down

Apply muting as you see fit...
I'm not gonna do EVERYTHING for you!



DADGBE

LOOK OUT!
E-------------------------------------------|
B-------------------------------------------|
G-------------------------------------------|
D----11------11------13-----11-------11-----| 
A-----9--10---9--10--11------9--10----9--10-|
D--------10------10-------------10-------10-|



E--------------|
B--------------|
G--------------|
D----4/16\4----|    
A----4/16\4----|
D----4/16\4----|


Reich!  
E---------------------------------------|
B---------------------------------------|
G----5556--55556--56---5556--55556--3---|
D----5556--55556--56---5556--55556--3---|   x3
A----3334--33334--34---3334--33334--1---|
D---------------------------------------|


Mein Krieg!
E------------------------------------------|
B------------------------------------------|
G----5556--55556--56---5556--555-----------|
D----5556--55556--56---5556--555----3\1----|    
A----3334--33334--34---3334--3333434-------|
D------------------------------------------|



E------------------------------------|
B------------------------------------|
G------------------------------------|
D---3--333--331---4-3---333---336-4--| 
A---3--333--331---4-3---333---336-4--|
D---3--333--331---4-3---333---336-4--|


E------------------------------------|
B------------------------------------|
G------------------------------------|
D---3--333--331---4-3---333---336-8--| 
A---3--333--331---4-3---333---336-8--|
D---3--333--331---4-3---333---336-8--|

Third Reich...         From the Sun!
E------------------------------------|
B------------------------------------|
G---5--555--553--6-5---555--558--6---|
D---5--555--553--6-5---555--558--6---| 
A---3--333--331--4-3---333--336--4---|
D------------------------------------|

Third Reich...         From the Sun!
E------------------------------------|
B------------------------------------|
G---5--555--553--6-5---555--558--10--|
D---5--555--553--6-5---555--558--10--| 
A---3--333--331--4-3---333--336---8--|
D------------------------------------|

Revolution
E----------------------------------------|
B----------------------------------------|
G---5----3-6-5---8-6-5----3-6-5----8-10--|
D---5----3-6-5---8-6-5----3-6-5----8-10--| 
A---3----1-4-3---6-4-3----1-4-3----6--8--|
D----------------------------------------|

Blut! 
E---------------------------------------|
B---------------------------------------|
G----5556--55556--56---5556--55556--3---|
D----5556--55556--56---5556--55556--3---|   x4
A----3334--33334--34---3334--33334--1---|
D---------------------------------------|

So you should know what parts repeat...I checked
for as many errors as I could.  Please just thank
me for not being tone deaf as I've found some
people to be...hehe.  Enjoy!!




Tap to rate this tab
# A B C D E F G H I J K L M N O P Q R S T U V W X Y Z