Song name
# A B C D E F G H I J K L M N O P Q R S T U V W X Y Z

Happoradio - Puhu Aanella Jonka Kuulen tab

-------------------------------------------------------------------------
PUHU ÄÄNELLÄ JONKA KUULEN - Happoradio
-------------------------------------------------------------------------
Tabbed by: Kengus

Happoradio official website: www.happoradio.net 

Standard tuning

INTRO (guitar 1 & 2)                     B5 = 799xxx      B = 799877
   B5                                   G#m = 466444  F#/Bb = 698676
e|----------------------------------|     E = 022100     F# = 244322
B|-----0---------------0------------| Eadd9 = 024100  Emaj7 = 022444
G|-------------3---------------3----|   C#m = x46650
D|---4---4---4---4---4---4---4---4--|     
A|-2-------2-------2-------2--------| 
E|----------------------------------|    
                                      
VERSE1 (guitar 1 & 2)
   B5                              G#m
e|-----------------------------------------------------------------|
B|-----0---------------0---------------0---------------0-----------|
G|-------------3---------------3---------------3---------------3---|
D|---4---4---4---4---4---4---4---4---4---4---4---4---4---4---4---4-|  x2
A|-2-------2-------2-------2---------------------------------------|
E|---------------------------------4-------4-------4-------4-------|
   E        Eadd9    C#m               B5
e|-----------------------------------------------------------------------|
B|--------------------------------0--------0---------------0-------------|
G|-----------------------1-------------------------3---------------3-----|
D|-----2--------4------2---2----2---2----4---4---4---4---4---4---4---4---|
A|---2---2----2---2--4--------4--------2-------2-------2-------2---------|
E|-0--------0------------------------------------------------------------|

VERSE2 (guitar 1 & 2)
   B5                              G#m
e|-----------------------------------------------------------------|
B|-----0---------------0---------------0---------------0-----------|
G|-------------3---------------3---------------3---------------3---|
D|---4---4---4---4---4---4---4---4---4---4---4---4---4---4---4---4-|  x2
A|-2-------2-------2-------2---------------------------------------|
E|---------------------------------4-------4-------4-------4-------|
   E        Eadd9    C#m               B5
e|--------------------------------------------------------------------|
B|--------------------------------0--------0---------------0----------|
G|-----------------------1-------------------------3---------------3--|
D|-----2--------4------2---2----2---2----4---4---4---4---4---4---4---4| x2
A|---2---2----2---2--4--------4--------2-------2-------2-------2------|
E|-0--------0---------------------------------------------------------|

CHORUS1 (guitar 1 & 2)
   G#m              E                B                F#/Bb
e|-----1-------1--------1-------1--------1-------1--------2-------2------|
B|---4---4---4---4----5---5---5---5----4---4---4---4----2---2---2---2----|
G|-4-------4--------4-------4--------4-------4--------3-------3----------|
D|-----------------------------------------------------------------------|
A|-----------------------------------------------------------------------|
E|-----------------------------------------------------------------------|
   G#m             E               B               F#/Bb           E
e|-----1-------1-------1-------1-------1-------1-------2-------2------0--|
B|---4---4---4---4---5---5---5---5---4---4---4---4---2---2---2---2---0---|
G|-4-------4-------4-------4-------4-------4-------3-------3--------1----|
D|-----------------------------------------------------------------2-----|
A|-----------------------------------------------------------------------|
E|-----------------------------------------------------------------------|

VERSE3 (guitar 1 & 2)
   B5                              G#m
e|-----------------------------------------------------------------|
B|-----0---------------0---------------0---------------0-----------|
G|-------------3---------------3---------------3---------------3---|
D|---4---4---4---4---4---4---4---4---4---4---4---4---4---4---4---4-|  x2
A|-2-------2-------2-------2---------------------------------------|
E|---------------------------------4-------4-------4-------4-------|
   E       Eadd9    C#m              B5
e|-----1-------1--------1-------1--------1-------1--------1-------1---|
B|---5---5---5---5----5---5---5---5----4---4---4---4----4---4---4---4-|
G|-4-------4--------4-------4--------4-------4--------4-------4-------|
D|--------------------------------------------------------------------|
A|--------------------------------------------------------------------|
E|--------------------------------------------------------------------|

CHORUS2 (guitar 1 & 2)
   G#m              E                B                F#/Bb
e|-----1-------1--------1-------1--------1-------1--------2-------2--|
B|---4---4---4---4----5---5---5---5----4---4---4---4----2---2---2---2|
G|-4-------4--------4-------4--------4-------4--------3-------3------| x2
D|-------------------------------------------------------------------|
A|-------------------------------------------------------------------|
E|-------------------------------------------------------------------|
   G#m              E                B                F#          
e|-----1-------1--------1-------1--------1-------1--------2-------2--|
B|---4---4---4---4----5---5---5---5----4---4---4---4----2---2---2---2|
G|-4-------4--------4-------4--------4-------4--------3-------3------| x3
D|-------------------------------------------------------------------|
A|-------------------------------------------------------------------|
E|-------------------------------------------------------------------|
   G#m              E                B                F#           Emaj7          
e|-----1-------1-------1-------1-------1-------1-------2-------2----4---|
B|---4---4---4---4---5---5---5---5---4---4---4---4---2---2---2---2--4---|
G|-4-------4-------4-------4-------4-------4-------3-------3--------4---|
D|------------------------------------------------------------------2---|
A|------------------------------------------------------------------2---|
E|------------------------------------------------------------------0---|

LYRICS:

INTRO
B5

VERSE1
B5                              G#m
Kumpaa sinä pelkäät, melua vai rauhaa?
B5                                     G#m
Kumpaa sinä kaihdat, yksinäisyyttä vai laumaa?
E        Eadd9      C#m                      B5
Miksi sä itket, kun naapurissa jonkun lapsi nauraa?

VERSE2
B5                                  G#m
Olet syvää vettä, luoksepääsemätön vuori
B5                                 G#m
Unohdettu ullakko, olet titaaninen kuori
E        Eadd9      C#m                      B5
Miksi sä itket, kun naapurissa jonkun lapsi nauraa?
E        Eadd9      C#m                        B5
Miksi sä itket, kun radiossa joku rakkaudesta laulaa?

CHORUS1
                    G#m      E
Puhu äänellä, jonka kuulen,
                    B                       F#/Bb
sanoilla jotka ymmärrän, runoilla jotka käsitän
                    G#m    E                       B
Sinuun tarvii tekstityksen,   salaisuuksien selittäjän,
                    F#/Bb
kertojan kaikkitietävän
                     E
Puhu äänellä, jonka kuulen

VERSE3
B5                                  G#m
Olen yksinkertainen, aina selitystä vailla
     B5                                     G#m
Sinä kartta monimutkainen, matka vierahilla mailla
E        Eadd9      C#m                       B5
Miksi sä itket, kun radiossa joku rakkaudesta laulaa?

CHORUS2
                    G#m      E
Puhu äänellä, jonka kuulen,
                    B                       F#/Bb
sanoilla jotka ymmärrän, runoilla jotka käsitän
                    G#m    E                        B
Sinuun tarvii tekstityksen,    salaisuuksien selittäjän,
                    F#/Bb
kertojan kaikkitietävän
                    G#m     E  B  F#
Puhu äänellä, jonka kuulen
                    G#m     E  B  F#
Puhu äänellä, jonka kuulen
                    G#m     E  B  F#
Puhu äänellä, jonka kuulen
                    Emaj7
Puhu äänellä, jonka kuulen.

=========================================================================
Tap to rate this tab
# A B C D E F G H I J K L M N O P Q R S T U V W X Y Z